Song name
# A B C D E F G H I J K L M N O P Q R S T U V W X Y Z

Dr Dre - Nuthin But A G Thang tab

Intro/Verse Wah guitar
|----------5-5-7/-------------------------------|
|--7~--5~---------------------------------------|
|--7~--6~---------------------------------------|
|-----------------------------------------------|
|-----------------------------------------------|
|-----------------------------------------------|

Chorus Riff
|---19-17-19-21-19~-17--------------------------|
|----------------------20-19~--17-19~-----------|
|-----------------------------------------------|
|-----------------------------------------------|
|-----------------------------------------------|
|-----------------------------------------------|

Pre Chorus Riff
|-19~-17----------------------------------------|
|--------19~-17-19~-----------------------------|
|-----------------------------------------------|
|-----------------------------------------------|
|-----------------------------------------------|
|-----------------------------------------------|

Bass Line
|-----------------------------------------------|
|-----------------------------------------------|
|-----------------------------------------------|
|---------------2-3-4-----2-3-4-----------------|
|--2-0---2----4---------4----------2-0---2------|
|------2-------------------------------2--------|

Tap to rate this tab
# A B C D E F G H I J K L M N O P Q R S T U V W X Y Z