Song name
# A B C D E F G H I J K L M N O P Q R S T U V W X Y Z

Dr Dre - Still Dre tab

-------------------------------------------------------------------------------
			     Still Dre - Dr Dre
-------------------------------------------------------------------------------
Tabbed by: WouterDorissen
Email: wouterdorissen@hotmail.com

Tuning: standard

Hello,
I thought all the other tabs weren't really good so here is my version.


Main

e|-----------------------------------------------------------------|
B|----------8--8--8--8--8--8--8--8----8--8--8---6--6--6--6--6------|
G|----------7--7--7--7--7--7--7--7----7--7--7---7--7--7--7--7------|
D|----0-----0--0--0--0--0--0--0--0----0--0--0---0--0--0--0--0------|
A|-----------------------------------------------------------------|
E|-----------------------------------------------------------------|

Little Riff

e|----------------------10---------------------------10------------|
B|----------10-11-10-11----11h10p11------10-11-10-11----10h8p10----|
G|-----------------------------------------------------------------|
D|-----------------------------------------------------------------|
A|-----------------------------------------------------------------|
E|-----------------------------------------------------------------|

| /  slide up
| \  slide down
| h  hammer-on
| p  pull-off
| ~  vibrato
| +  harmonic
| x  Mute note

Thanks

[Wouterdorissen@hotmail.com]
Tap to rate this tab
 
# A B C D E F G H I J K L M N O P Q R S T U V W X Y Z