Song name
# A B C D E F G H I J K L M N O P Q R S T U V W X Y Z

Dr Dre - Forgot About Dre tab

-------------------------------------------------------------------------------
			     FORGOT ABOUT DRE - Dr. Dre / Eminem
-------------------------------------------------------------------------------

Tuning: Drop-D

e|-----------3--5--6------------3--5--6--------------------------------------|
B|--------3------------------3-----------------------------------------------|
G|-----3------------------3--------------------------------------------------|
D|--5------------------1-----------------------------------------------------|
A|---------------------------------------------------------------------------|
D|---------------------------------------------------------------------------|

e|--3--3--3--3---3--3--3--3-3---3--3--3--3---3--3--3--3----------------------|
B|--3--3--3--3---3--3--3--3-3---4--4--4--4---3--3--3--3----------------------|
G|---------------------------------------------------------------------------|
D|---------------------------------------------------------------------------|
A|---------------------------------------------------------------------------|
D|---------------------------------------------------------------------------|

e|---------------------------------------------------------------------------|
B|---------------------------------------------------------------------------|
G|---------------------------------------------------------------------------|
D|---------------------------------------------------------------------------|
A|---------0--1~--0--1--0--------------------0--1~--0--1--0------------------|
D|--5~--5------------------1~--0~-4~--5~--5------------------1~--0~-4~-------|
Tap to rate this tab
 
# A B C D E F G H I J K L M N O P Q R S T U V W X Y Z