Song name
# A B C D E F G H I J K L M N O P Q R S T U V W X Y Z

Dr Dre - I Need A Doctor tab

This is my first ever Tab, all feedback welcome :)

E-mail: JNRPro@hotmail.co.uk 

This tab is for the vocal part of the song, it goes great as an acoustic intro or 
played on the electric guitar as a solo.

Capo 3rd

E|----------------------------|----------------------------|
B|--11--11--11--11--11--10--1-|-1--1--1--10--11--10--------|
G|----------------------------|----------------------------|
D|----------------------------|----------------------------|
A|----------------------------|----------------------------|
E|----------------------------|----------------------------|

E|----------------------------|----------------------------|
B|-10--10--10--8--0-----------|-8--10--8--11--8------------|
G|----------------------------|----------------------------|
D|----------------------------|----------------------------|
A|----------------------------|----------------------------|
E|----------------------------|----------------------------|

E|----------------------------|----------------------------|
B|--8--10--8--11--8-----------|-8--10--8--10--7--10--7-----|
G|----------------------------|----------------------------|
D|----------------------------|----------------------------|
A|----------------------------|----------------------------|
E|----------------------------|----------------------------|
                              
E|----------------------------|
B|-7/11---11--11--10--8-------|
G|----------------------------|
D|----------------------------|
A|----------------------------|
E|----------------------------|

These chords play throughout the whole song (Capo 3rd)

Em                   C
I'm about to lose my mind
                        D
you've been gone for so long
                    
I'm running out of time
         C
I need a doctor
          Am
call me a doctor
         B
I need a doctor, doctor
                   (Em)
to bring me back to life
Tap to rate this tab
 
# A B C D E F G H I J K L M N O P Q R S T U V W X Y Z