Song name
# A B C D E F G H I J K L M N O P Q R S T U V W X Y Z

Dr Dre - Nuthin But A G Thang tab

-------------------------------------------------------------------------------
			  Nuthin' But A G Thang- Dr. Dre
-------------------------------------------------------------------------------
Tabbed by: Derek
Email: yesmandroc@yahoo.com

Tuning: Standard

As heard here: http://www.youtube.com/watch?v=4pNeFzE9wcM&feature=relmfu
  
   Hook:   
  bm7 f#m7    bm7           f#m7                       bm
e|-7---9-----|-7------7--9--7--------------------0---2-----------------------|
B|-7---10----|----10------------10----8--7-----------------------------------|
G|-7---9-----|---------------------------------------------------------------|
D|-----------|-9^7-----------------------------------------------------------|
A|-----9-----|-----9--------7-7-8-9------7-7-8-9-------2^0---2---------------|
E|-7---------|-------7-------------------------------------2-----------------|

  Verse:
   bm7         f#m7                  bm7
e|---------x-----------x----------x----------x-------------------------------|
B|-3-------x---2-------x--2-------x--3-------x-------------------------------|
G|-2-------x---2-------x--2-------x--2-------x-------------------------------|
D|---------x-----------x----------x----------x-------------------------------|
A|-2^0---2-x-----------x----------x--2^0---2-x-------------------------------|
E|-----2---x---0-0-1-2-x--0-0-1-2-x------2---x-------------------------------|
Tap to rate this tab
 
# A B C D E F G H I J K L M N O P Q R S T U V W X Y Z