Song name
# A B C D E F G H I J K L M N O P Q R S T U V W X Y Z

Dr Dre - Forgot About Dre tab

-------------------------------------------------------------------------------
		     Forgot About Dre (feat. Eminem) - Dr. Dre
-------------------------------------------------------------------------------
Tabbed by: El Wiz
Email: markpena925@hotmail.com

Tuning:Drop D

Bass heard throughout song
e|---------------------------------------------------------------------------|
B|---------------------------------------------------------------------------|
G|---------------------------------------------------------------------------|
D|---------------------------------------------------------------------------|
A|---------------------------------------------------------------------------|
D|5~----5-7-8---7-8-7-1~--0~-------------------------------------------------|


Guitar part also heard throughout song
e|------3--5--6-------3--5--6------------------------------------------------|
B|----3-------------3--------------------------------------------------------|
G|--3-------------3----------------------------------------------------------|
D|5-------------1------------------------------------------------------------|
A|---------------------------------------------------------------------------|
D|---------------------------------------------------------------------------|


Solo heard in the middle of Eminem's verse 
which is just the bass part but up an octave and with distortion
e|---------------------------------------------------------------------------|
B|---------------------------------------------------------------------------|
G|---------------------------------------------------------------------------|
D|5~----5-7-8---7-8-7--------------------------------------------------------|
A|--------------------6~--5~-------------------------------------------------|
D|---------------------------------------------------------------------------|
                             x2


Tap to rate this tab
 
# A B C D E F G H I J K L M N O P Q R S T U V W X Y Z