Song name
# A B C D E F G H I J K L M N O P Q R S T U V W X Y Z

Dr Dre - B N tab

this song works best tuned 20 cents down i guess that is droped 1\4 but what ever you want

Dr Dre
album:2001 insturmental
track: 13 B***** N*******

e|7-8p7-----------5-|-7-8p7-----------5|
B|8-----8---7h8---6-|-8-----8---7h8---6|      Intro
G|9-------9-----9-7-|-9-------9-----9-7|
D|------------------|------------------|
A|------------------|------------------|
E|------------------|------------------|


now every 4 beats oly this and rest for 3 beats each note half of a beat
repeat untill end of song play each time basically after 2 heavy drum beats
E-7-5-----------|-7-5-------------|
B-8-6-----------|-8-6-------------|
G-9-7-----------|-9-7-------------|
D---------------|-----------------|
A---------------|-----------------|
E---------------|-----------------|

E-7-5-----------|-7-5-------------|
B-8-6-----------|-8-6-------------|
G-9-7-----------|-9-7-------------|
D---------------|-----------------|
A---------------|-----------------|
E---------------|-----------------|

E-7-5-----------|-7-5-------------|
B-8-6-----------|-8-6-------------|
G-9-7-----------|-9-7-------------|
D---------------|-----------------|
A---------------|-----------------|
E---------------|-----------------|
Tap to rate this tab
# A B C D E F G H I J K L M N O P Q R S T U V W X Y Z