Song name
# A B C D E F G H I J K L M N O P Q R S T U V W X Y Z

Dr Dre - Forgot About Dre tab

-------------------------------------------------------------------------------
                                     Forgot About Dre - Dr. Dre feat. Eminem
-------------------------------------------------------------------------------
Tabbed by: istarii
E-mail: istariimusic@hotmail.com

Tuning: Standard


  Figure 1 (strings)                                      End Figure 1

e|--------------------------------------------------------------------|
B|--------------------------------------------------------------------|
G|--------------------------------------------------------------------|
D|-12--12--12--12--12--12--12-12-12-----------------------------------|
A|-10--10--10--10--10--10--10-10-10-13--13--13--13\--12--12--12--12\--|
E|----------------------------------11--11--11--11\--10--10--10--10\--|


  Figure 2 (guitar palm muted)                            End Figure 2
  
e|--------------------------------------------------------------------|
B|---------------------10-----11-------------------------10------11---|
G|-------------10-------------------------------12--------------------|
D|---------12-------------------------------12------------------------|
A|-10--13-------------------------------13----------------------------|
E|----------------------------------11--------------------------------|


  Figure 3 (guitar solo)                                  End Figure 3 

e|--------------------------------------------------------------------|
B|---------------------------2--3-2-----------------------------------|
G|---------------------3~---------------------------------------------|
D|------------------5-------------------------------------------------| x2
A|----------------5-----------------6~---------------5~---------------|
E|-3~---------------------------------------------------------6~------|


Figure 1 = played through entire song
Figure 2 = comes in before the drums and plays 
Figure 3 = midway through verse 2 it plays twice


Tap to rate this tab
 
# A B C D E F G H I J K L M N O P Q R S T U V W X Y Z