Song name
# A B C D E F G H I J K L M N O P Q R S T U V W X Y Z

Dr Dre - I Need A Doctor tab

i actually didn't like all the tabs already presented for this song.
this transcribing is not about strumming or bass patterns. It's just
about all of the transcribers seem to forget slight transition back
to Gm in first tact.


    Gm              Gm              Eb              Gm
E|--10------10------10------10------11------11------10------10------|
B|--11------11------11------11------11------11------11------11------|
G|------12------12------12------12------12------12------12------12--|
D|------------------------------------------------------------------|
A|------------------------------------------------------------------|
E|------------------------------------------------------------------|

    Fsus4           Fsus4           Fsus4           Fsus4
E|--8-------8-------8-------8-------8-------8-------8-------8-------|
B|--11------11------11------11------11------11------11------11------|
G|------10------10------10------10------10------10------10------10--|
D|------------------------------------------------------------------|
A|------------------------------------------------------------------|
E|------------------------------------------------------------------|

    Cm              Cm              Eb              Eb
E|--8-------8-------8-------8-------6-------6-------6-------6-------|
B|--8-------8-------8-------8-------8-------8-------8-------8-------|
G|------5-------5-------5-------5-------8-------8-------8-------8---|
D|------------------------------------------------------------------|
A|------------------------------------------------------------------|
E|------------------------------------------------------------------|

    Dsus4           Dsus4           D               D
E|--5-------5-------5-------5-------5-------5-------5-------5-------|
B|--8-------8-------8-------8-------7-------7-------7-------7-------|
G|------7-------7-------7-------7-------7-------7-------7-------7---|
D|------------------------------------------------------------------|
A|------------------------------------------------------------------|
E|------------------------------------------------------------------|

as for full chords in chorus it goes well with:

    Gm  Eb  F   D   Cm  Eb  Dsus4 and D7 (D)
E|--3---3---1---2---3---3---5----|
B|--3---4---1---3---4---4---8----|
G|--3---3---2---2---5---3---7----|
D|--5---5---3---4---6---5---7----|
A|--5---6---3---5---3---6---5----|
E|--3-------1--------------------|
Tap to rate this tab
# A B C D E F G H I J K L M N O P Q R S T U V W X Y Z