Song name
# A B C D E F G H I J K L M N O P Q R S T U V W X Y Z

Dr Dre - Bitch Niggaz tab

-------------------------------------------------------------------------------
			     Bitch Niggaz - Dr Dre
-------------------------------------------------------------------------------
Tabbed by: Matt Hoare
Email: matthoare@hotmail.com

Tuning: Standard

e|---7-------8p7------------5----5-7-8-7-5----7------7h8p7-------------------|
B|---8----------8-7h8p7-----5----5------------8------------8-7h8p7-----------|
G|---9------------------9---5----5------------9--------------------9---------|
D|---9----------------------7----7------------9------------------------------|
A|---------------------------------------------------------------------------|
E|---------------------------------------------------------------------------|

e|---7----7----------7----5--------------------------------------------------|
B|---7h8--7----------7h8--5--------------------------------------------------|
G|--------9---------------5--------------------------------------------------|
D|--------9---------------7--------------------------------------------------|
A|--------7---------------7--------------------------------------------------|
E|---------------------------------------------------------------------------|

| /  slide up
| \  slide down
| h  hammer-on
| p  pull-off
| ~  vibrato
| +  harmonic
| x  Mute note
===============================================================================
Tap to rate this tab
# A B C D E F G H I J K L M N O P Q R S T U V W X Y Z