Song name
# A B C D E F G H I J K L M N O P Q R S T U V W X Y Z

Dr Feelgood - Roxette tab

                                    Roxette                                     


                                                                    Dr. Feelgood
130 BPM


                           Fig. 1
     H.            E  E        E   e   E  E   E   e   E  E   
E||----------------------||---------------------------------|
B||----------------------||---------------------------------|
G||----------------------||*--------------------------------|
D||-------------------8--||*-------9------8-------9------8--|
A||-------------------8--||---10--10------8--10--10------8--|
E||---------------10-----||-----------10-------------10-----|


   E   e   E  E   E   e   E  E      E   e   E  E   E   e   E  E   
--------------------------------|--------------------------------|
--------------------------------|--------------------------------|
--------------------------------|--------------------------------|
-------9------8-------9------8--|-------9------8-------9------8--|
--10--10------8--10--10------8--|--10--10------8--10--10------8--|
----------10-------------10-----|----------10-------------10-----|

                                 Vocals Enter
   E   e   E  E   E   e   E  E      E   e   E  E   E   e   E  E   
--------------------------------|--------------------------------|
--------------------------------|--------------------------------|
--------------------------------|--------------------------------|
-------9------8-------9------8--|-------9------8-------9------8--|
--10--10------8--10--10------8--|--10--10------8--10--10------8--|
----------10-------------10-----|----------10-------------10-----|


   E   e   E  E   E   e   E  E      E   e   E  E   E   e   E  E   
--------------------------------|--------------------------------|
--------------------------------|--------------------------------|
--------------------------------|--------------------------------|
-------9------8-------9------8--|-------9------8-------9------8--|
--10--10------8--10--10------8--|--10--10------8--10--10------8--|
----------10-------------10-----|----------10-------------10-----|

                                  Fig. 2
   E   e   E  E   E   e   E  E      E   e   E  E   E   e   E  E   
--------------------------------|--------------------------------|
--------------------------------|--------------------------------|
--------------------------------|-------9------8-------9------8--|
-------9------8-------9------8--|--10--10------8--10--10------8--|
--10--10------8--10--10------8--|----------10-------------10-----|
----------10-------------10-----|--------------------------------|

                                  Fig. 1
   E   e   E  E   E   e   E  E      E   e   E  E   E   e   E  E   
--------------------------------|--------------------------------|
--------------------------------|--------------------------------|
-------9------8-------9------8--|--------------------------------|
--10--10------8--10--10------8--|-------9------8-------9------8--|
----------10-------------10-----|--10--10------8--10--10------8--|
--------------------------------|----------10-------------10-----|

                                 Fig. 3
   E   e   E  E   E   e   E  E     E  e  E  e  E  e  E  E    
--------------------------------|---------------------------|
--------------------------------|-----7-----7-----7-----7---|
--------------------------------|-----7-----7-----7-----7---|
-------9------8-------9------8--|--7--7--x--7--x--7--x--7S--|
--10--10------8--10--10------8--|---------------------------|
----------10-------------10-----|---------------------------|


  E  e  E  e  E  e  E  E      E  e  E  e  E  e  E  E   
---------------------------|--------------------------|
-----5-----5-----5-----5---|-----7-----7-----7-----7--|
-----5-----5-----5-----5---|-----7-----7-----7-----7--|
--5--5--x--5--x--5--x--5S--|--7--7--x--7--x--7--x--7--|
---------------------------|--------------------------|
---------------------------|--------------------------|

 Fig. 1
   E   e   E  E   E   e   E  E      E   e   E  E   E   e   E  E     
--------------------------------|---------------------------------||
--------------------------------|---------------------------------||
--------------------------------|--------------------------------*||
-------9------8-------9------8--|-------9------8-------9------8--*||
--10--10------8--10--10------8--|--10--10------8--10--10------8---||
----------10-------------10-----|----------10-------------10------||

Then it repeats, but Fig. 1 is played for an extra 2 bars before the first harmonica solo.






Duration Legend
---------------
W - whole
H - half
Q - quarter
E - 8th
S - 16th
T - 32nd
X - 64th
. - note dotted
|-n-|  - n-tuplets
lowercase = staccato

Tablature Legend
----------------
L - tied note
x - dead note
g - grace note
(n) - ghost note
> - accentuded note
NH - natural harmonic
AH - artificial harmonic
TH - tapped harmonic
SH - semi harmonic
PH - pitch harmonic
h - hammer on
p - pull off
b - bend
br - bendRelease
pb - preBend
pbr - preBendRelease
brb - bendReleaseBend
\n/ - tremolo bar dip
\n - tremolo bar dive
-/n - tremolo bar Release up
/n\ - tremolo bar inverted dip
/n - tremolo bar return
-\n - tremolo bar Release down
S - shift slide
s - legato slide
/ -  slide into from below or out of upwards
\ -  slide into from above or out of downwards
~ - vibrato
W - wide vibrato
tr - trill
TP - tremolo picking
T - tapping
S - slap
P - pop
< - fade in
^ - brush up
v - brush down
Tap to rate this tab
 
# A B C D E F G H I J K L M N O P Q R S T U V W X Y Z