Dr Feelgood - Looking Back tab

Intro
      G                              D    
E|------------------------------------------|
B|------------------------------------------|
G|------------------------------------------|
D|-------------------------------5-6-7~-7-7-|
A|3-4-5---3-4-5---3-4-5---3-4-5--3-4-5~-5-5-|
E|1-2-3---1-2-3---1-2-3---1-2-3-------------|

Verse

  G
E|---------------|
B|---------------|
G|---------------|
D|--------3---2--|
A|----5-5---5---5|
E|3-3------------| x4

  C
E|---------------|
B|---------------|
G|--------3---2--|
D|----5-5---5---5|
A|3-3------------|
E|---------------| x2

E|-------------------------|
B|-------------------------|
G|-------------------------|
D|--------3---2-----------3|
A|----5-5---5---5-----5-5--|
E|3-3-------------3-3------| 

Chorus
        D         C         G       D 
E|----------------------------------------|
B|----------------------------------------|
G|----------------------------------------|
D|4-5-6-7---2-3-4-5-------------5-6-7~-7-7|
A|2-3-4-5---0-1-2-3---2-3-4-5---3-4-5~-5-5|
E|--------------------0-1-2-3-------------|



You can go here to see me play Dr Feelgood with my father! 
http://www.youtube.com/watch?v=gf-tj325NIE
Tap to rate this tab
 
# A B C D E F G H I J K L M N O P Q R S T U V W X Y Z