Song name
# A B C D E F G H I J K L M N O P Q R S T U V W X Y Z

Dr Feelgood - Milk And Alcohol tab

Song: Milk and Alcohol
Artist: Dr. Feelgood
Album: Private Practice
Year: 1979
Writer(s): Nick Lowe; Gypie Mayo;

Intro

e-----------------------|
B-----------------------|
G-5-5-5-3-3-------5-5-5-|
D-5-5-5-3-3-3-3-5-5-5-5-| x2
A-3-3-3-1-1-3-3-5-3-3-3-|
E-----------1-1-3-------|

Verse

e-----------------------------------------------------------------|
B-----------------------------------------------------------------|
G-----------------------------------------------------------------|
D-5-5-5-7-5-5-5-7-5-5-5-7-5-5-5-7-5-5-5-7-5-5-5-7-5-5-5-7-5-5-5-7-|
A-3-3-3-3-3-3-3-3-3-3-3-3-3-3-3-3-3-3-3-3-3-3-3-3-3-3-3-3-3-3-3-3-|
E-----------------------------------------------------------------|

e-------------------------------------------------|
B-------------------------------------------------|
G-------------------------------------------------|
D-10-10-10-12-10-10-10-12-10-10-10-12-10-10-10-12-|
A-8--8--8--8--8--8--8--8--8--8--8--8--8--8--8--8--|
E-------------------------------------------------|

e---------------------------------|
B---------------------------------|
G---------------------------------|
D-5-5-5-7-5-5-5-7-5-5-5-7-5-5-5-7-|
A-3-3-3-3-3-3-3-3-3-3-3-3-3-3-3-3-|
E---------------------------------|

Pre-Chorus

e---------------------------------|
B---------------------------------|
G---------------------------------| x2
D---------------------------------|
A-------3-5-7-5-5-------3-5-7-5-5-|
E-1-1/5-----------1-1/5-----------|

Chorus

e---------------------|
B---------------------|
G-5-5-3-3-------5-5-5-|
D-5-5-3-3-3-3-5-5-5-5-| x2
A-3-3-1-1-3-3-5-3-3-3-|
E---------1-1-3-------|

Verse

e-----------------------------------------------------------------|
B-----------------------------------------------------------------|
G-----------------------------------------------------------------|
D-5-5-5-7-5-5-5-7-5-5-5-7-5-5-5-7-5-5-5-7-5-5-5-7-5-5-5-7-5-5-5-7-|
A-3-3-3-3-3-3-3-3-3-3-3-3-3-3-3-3-3-3-3-3-3-3-3-3-3-3-3-3-3-3-3-3-|
E-----------------------------------------------------------------|

e-------------------------------------------------|
B-------------------------------------------------|
G-------------------------------------------------|
D-10-10-10-12-10-10-10-12-10-10-10-12-10-10-10-12-|
A-8--8--8--8--8--8--8--8--8--8--8--8--8--8--8--8--|
E-------------------------------------------------|

e---------------------------------|
B---------------------------------|
G---------------------------------|
D-5-5-5-7-5-5-5-7-5-5-5-7-5-5-5-7-|
A-3-3-3-3-3-3-3-3-3-3-3-3-3-3-3-3-|
E---------------------------------|

Pre-Chorus

e---------------------------------|
B---------------------------------|
G---------------------------------| x2
D---------------------------------|
A-------3-5-7-5-5-------3-5-7-5-5-|
E-1-1/5-----------1-1/5-----------|

Chorus

e---------------------|
B---------------------|
G-5-5-3-3-------5-5-5-|
D-5-5-3-3-3-3-5-5-5-5-| x2
A-3-3-1-1-3-3-5-3-3-3-|
E---------1-1-3-------|

Solo

e----------------------------------------------------------------------------|
B-8---11-8---8---8---8---8---8---8---8---8---8---8---8---8---8---8---8---8---|
G-10b----10r-10b-10b-10b-10b-10b-10b-10b-10b-10b-10b-10b-10b-10b-10b-10b-10--|b
D----------------------------------------------------------------------------|
A----------------------------------------------------------------------------|
E----------------------------------------------------------------------------|

e-------------------------------------------------------------|
B-8-8-8-10-8-8-8-10-8-8-8-10-8-8-8-10-8---8---8---8---8---8---|
G-8-8-8-10-8-8-8-10-8-8-8-10-8-8-8-10-10b-10b-10b-10b-10b-10b-|
D-------------------------------------------------------------|
A-------------------------------------------------------------|
E-------------------------------------------------------------|

e-----8--------8-----------------------------------------------------|
B-11b---11-11b---11-8-11p8-------------------------------------------|
G--------------------------10-10b-10p8--------------------10-12b-12b-|
D---------------------------------------------------10-12------------|
A--------------------------------------10-10--10-12------------------|
E--------------------------------------------------------------------|

e-----------------------------------------|
B-----------------------------------------|
G-12--------------------------------------|
D---------10h12-10-10-8-8--------10-10-10-|
A----10-12----------------8-8-10----------|
E-----------------------------------------|

Chorus 2

e---------------------13p11-8------------------------------------------|
B-----------------------------11-8-8--8--------------------------------|
G-5-5-3-3-------5-5-5-------------------10-8-10-10-8-8--------10-10-10-|
D-5-5-3-3-3-3-5-5-5-5------------------------10-10-8-8-8-8-10-10-10-10-|
A-3-3-1-1-3-3-5-3-3-3------------------------8--8--6-6-8-8-10-8--8--8--|
E---------1-1-3----------------------------------------6-6-8-----------|

e----------------------|
B----------------------|
G--5-5-3-3-------5-5-5-|
D--5-5-3-3-3-3-5-5-5-5-|
A--3-3-1-1-3-3-5-3-3-3-|
E----------1-1-3-------|

Verse

e-----------------------------------------------------------------|
B-----------------------------------------------------------------|
G-----------------------------------------------------------------|
D-5-5-5-7-5-5-5-7-5-5-5-7-5-5-5-7-5-5-5-7-5-5-5-7-5-5-5-7-5-5-5-7-|
A-3-3-3-3-3-3-3-3-3-3-3-3-3-3-3-3-3-3-3-3-3-3-3-3-3-3-3-3-3-3-3-3-|
E-----------------------------------------------------------------|

e-------------------------------------------------|
B-------------------------------------------------|
G-------------------------------------------------|
D-10-10-10-12-10-10-10-12-10-10-10-12-10-10-10-12-|
A-8--8--8--8--8--8--8--8--8--8--8--8--8--8--8--8--|
E-------------------------------------------------|

e---------------------------------|
B---------------------------------|
G---------------------------------|
D-5-5-5-7-5-5-5-7-5-5-5-7-5-5-5-7-|
A-3-3-3-3-3-3-3-3-3-3-3-3-3-3-3-3-|
E---------------------------------|

Pre-Chorus 2

e---------------------------------|
B---------------------------------|
G---------------------------------|
D---------------------------------| x4
A-------3-5-7-5-5-------3-5-7-5-5-|
E-1-1/5-----------1-1/5-----------|

Chorus 3

e-----------------------|
B-----------------------|
G-5-5-5-3-3-------5-5-5-|
D-5-5-5-3-3-3-3-5-5-5-5-| x5
A-3-3-3-1-1-3-3-5-3-3-3-|
E-----------1-1-3-------|

Song Order:

Intro
Verse
Pre-Chorus
Chorus
Verse
Pre-Chorus
Chorus
Solo
Chorus 2
Verse
Pre-Chorus 2
Chorus 3

Enjoy :)
Tap to rate this tab
# A B C D E F G H I J K L M N O P Q R S T U V W X Y Z