Song name
# A B C D E F G H I J K L M N O P Q R S T U V W X Y Z

Dr John - Right Place Wrong Time tab

-------------------------------------------------------------------------------
                             RIGHT PLACE WRONG TIME - Dr. John
-------------------------------------------------------------------------------
Tabbed by: electric prune
E-mail: hardmanmax@yahoo.co.uk

Tuning: Standard

e|-------------------------------------------------------------------|
B|--------------------------7----------------------------7-----------|
G|----------------------68-----------------------------8---8---------|
D|-------------------------------------------------------------4-----|
A|-------------------------------------------------------------------|
E|-------------------------------------------------------------------|

e|--------------------------------------------------------------13b----|
B|--------------------------7------------------------------------------|
G|----------------------68-------------------------------12/14---------|
D|---------------------------------------------------------------------|
A|---------------------------------------------------------------------|
E|---------------------------------------------------------------------|

e|-----------------------------------------------------18--14-16-18----|
B|------------------15-----15--15--------------------------------------|
G|---------------------------------------------------------------------|
D|-----------13/15-----15---15-----------------------------------------|
A|---------------------------------------------------------------------|
E|---------------------------------------------------------------------|

e|14--------14-------------14------------------------------------------|
B|---16-16---------14/-16------------16-14-----------14----12/13\11----|
G|-------------------------------------------15-13---------------------|
D|---------------------------------------------------------------------|
A|---------------------------------------------------------------------|
E|---------------------------------------------------------------------|

e|---------------------------------------------------------------------|
B|---------------------------------------------------------------------|
G|-15------13-11------------------------------------------11b-13/15----|
D|----16---------13-11-----------13-9-11--13--11--11h13----------------|
A|----------------------13-11-13---------------------------------------|
E|---------------------------------------------------------------------|

e|--------------------------------14-----------------------------------|
B|-14-----------------------14/16-------16-14-16-14------------16------|
G|-----15b---13-11---11-----------------------------15-13---15---------|
D|-----------------13--------------------------------------------------|
A|---------------------------------------------------------------------|
E|---------------------------------------------------------------------|



e|---------------------------------------------------------------------|
B|-16-16--16-16--16-16--16-14--16-14--------------16-16----------------|
G|-------------------------------------13/15\11------------------------|
D|--------------------------------------------------16/18--------------|
A|---------------------------------------------------------------------|
E|---------------------------------------------------------------------|
************************************


| /   slide up
| \   slide down
| h   hammer-on
| p   pull-off
| ~   vibrato
| +   harmonic
| x   Mute note
| b   Bend
| pb  Pre-bend
| br  Bend release
| pbr Pre-bend release
| brb Bend release bend

************************************
Tap to rate this tab
 
# A B C D E F G H I J K L M N O P Q R S T U V W X Y Z