Song name
# A B C D E F G H I J K L M N O P Q R S T U V W X Y Z

Dr Manhattan - Traceys Buns tab

#----------------------------------PLEASE NOTE---------------------------------#
#This file is the author's own work and represents their interpretation of the #
#song. You may only use this file for private study, scholarship, or research. #
#------------------------------------------------------------------------------#


“Tracey’s Buns” by Dr. Manhattan
Tabbed by: Bryce Hower (HowerPower)

This basically loops the entire song.
Gtr I (E A D G B E) 
  4/4
   Gtr I
    Q  Q   Q  Q    Q  Q  Q  Q     Q  Q   Q  Q    Q  Q  Q  Q
||---------------|-------------|---------------|------------|
||-12-----12-----|-5-----5-----|-12-----12-----|-5-----5----|
||-----0------0--|----0-----0--|-----0------0--|----0-----0-|
||---------------|-------------|---------------|------------|
||-10-----10-----|-7-----7-----|-10-----10-----|-7-----7----|
||---------------|-------------|---------------|------------|


   Q  Q   Q  Q    Q  Q  Q  Q   Q  Q  Q  Q   Q  Q  Q  Q
|---------------|------------|------------|---------------||
|-12-----12-----|-5-----5----|-7-----7----|-5-----5-------||
|-----0------0--|----0-----0-|----0-----0-|----0-----0----||
|---------------|------------|------------|---------------||
|-10-----10-----|-7-----7----|-5-----5----|-3-----3-------||
|---------------|------------|------------|---------------||

The Chord played at the very end is a G major.
Tap to rate this tab
# A B C D E F G H I J K L M N O P Q R S T U V W X Y Z