Song name
# A B C D E F G H I J K L M N O P Q R S T U V W X Y Z

Dr Sin - Karma tab

Tom: E
		

(Solo) 
E||--------------------------------------------------------------------|
B||--------------------------------------------------------------------|
G||------------------------20t9-11-14------------20t9-11-14------------|
D||-------------20t9-11-14------------20t9-11-14------------20t9-11-14-|
A||--19t9-12-14--------------------------------------------------------|
E||--------------------------------------------------------------------|


-------------------------------------------------------------|
-------------------------------------------------------------|
------------------------20t9-11-14------------20t9-11-14-----|
-------------20t9-11-14------------20t9-11-14----------------|
--19t9-12-14-------------------------------------------------|
-------------------------------------------------------------|


--------14----------14------------------|--------------------------|
-----------14-17-------14-17---14-------|--------------------------|
--16------------------------------14----|---------------2-2--------|
-------------------------------------16/|--4----4-2---------4------|
----------------------------------------|-----------4-4------------|
----------------------------------------|--------------------------|


----------2---------------------|--------------------------------------|
----------2----------4-4-2/17---|--17----------------------------------|
-------------4-4-2---4-4-2------|------17-16-14------16--14---14-------|
--4-4-4-4----------4------------|----------------16--------------16----|
--------------------------------|--------------------------------------|
--------------------------------|--------------------------------------|


------18h19h18-14-------------14--------|------------------------------------|
------------------14-------14-----17----|------------------------------------|
---------------------15-16--------------|--------16-16-14--------------------|
--16------------------------------------|-----------------16-14--------------|
----------------------------------------|-----------------------14-14-14-12--|
----------------------------------------|------------------------------------|


t = tapping
h = hammer-on
/ = slide

Tap to rate this tab
 
# A B C D E F G H I J K L M N O P Q R S T U V W X Y Z