Song name
# A B C D E F G H I J K L M N O P Q R S T U V W X Y Z

Dr Steel - Childhood Dont A Go-go tab

Song - Childhood (Don't) a Go-Go
Artist - Dr. Steel
Album - Dr. Steel II: Eclectic Boogaloo
----------------------------------------

Everything up to the solo :)


Intro/Chorus

e|-------------------------------------------------------------------|
B|-------------------------------------------------------------------|
G|-------------------------------------------------------------------|
D|--5-5-5-----------5-5-5-----------5-5-5-----------5-5-5-6-6-6-7-7--|
A|--3-3-3--4-4-5-5--3-3-3--4-4-5-5--3-3-3--4-4-5-5--3-3-3-4-4-4-5-5--|
E|---------2-2-3-3---------2-2-3-3---------2-2-3-3-------------------|

Verse 

(xx optional)

e|-------------------------------------------------------------------|
B|-------------------------------------------------------------------|
G|-------------------------------------------------------------------|
D|--5-5-xxxx-----xx-5-5-xxxx-----xx-5-5-xxxx-----xx--5-5-5-6-6-6-7-7-|
A|--3-3-xxxx-4-4-xx-3-3-xxxx-4-4-xx-3-3-xxxx-4-4-xx--3-3-3-4-4-5-5-5-|
E|------xxxx-2-2-xx-----xxxx-2-2-xx-----xxxx-2-2-xx------------------|

Solo

e|------------------------------------|
B|------------------------------------|
G|-----------12-12-12-------11h12p11--| x3
D|--14-14-14----------13-13-----------|
A|------------------------------------|
E|------------------------------------|

e|---------------------------------|
B|---------------------------------|
G|-----------12-12-12-15-15-15-15--|
D|--14-14-14-----------------------|
A|---------------------------------|
E|---------------------------------|
Tap to rate this tab
# A B C D E F G H I J K L M N O P Q R S T U V W X Y Z