Song name
# A B C D E F G H I J K L M N O P Q R S T U V W X Y Z

Draco And The Malfoys - Pansy You Are The Girl Of My Dreams tab

----------------------------------------------------------------------------
			     PANSY - Draco and the Malfoys
----------------------------------------------------------------------------Tabbed by: Zhuan Faraj

Standard tuning

Intro
     
e|---3---3----------0-------2-------0-----|
B|---0---0----------0-----3-3-3-----1--1--|
G|---0---0----------0----2--2-----0-0-----|
D|---0---0--------2-2---0---0----2--2-----|
A|---2---2-------2--2-------x---3---3-----|
E|---3---3--3-2-0---0-------x-------x-----|

Verses 

e|-------3-------0-------2-------0---|
B|-------0-------0-----3-3-------1---|
G|-------0-------0----2--2-----0-0---|
D|-----0-0-----2-2---0---0----2--2---|
A|----2--2----2--2-------x---3---3---|
E|---3---3---0---0-------x-------x---|

Chorus

e|---3---3----0---0----2---2---0---0---|
B|---0---0----0---0----3---3---1---1---|
G|---0---0----0---0----2---2---0---0---|
D|---0---0----2---2----0---0---2---2---|
A|---2---2----2---2----x---x---3---3---|
E|---3---3----0---0----x---x---x---x---|

Tap to rate this tab
# A B C D E F G H I J K L M N O P Q R S T U V W X Y Z