Song name
# A B C D E F G H I J K L M N O P Q R S T U V W X Y Z

Draconian - It Grieves My Heart tab

Hello guys (:
I was looking for this guitar tab but I couldn't find the hole song.
So I did it myself. I decided to do the orginal song, but in the demo version it was 
clearer. I thought the demo is actualy the same as the orginal but I believe the orginal 
song is tuned much lower than this version.

This is my first tab.
So I hope it's right largely.
Enjoy.

Intro:
E|----------------------------|
A|-----------------------2--1~|
D|6------------------2-1---2--|    Repeat 4 times
G|--8-6^8^6-4-3^4^3-----------|
B|----------------------------|
e|----------------------------|

E|-------------------------------|
A|-------------------------------|
D|------------9-11-13-8^9--10--/0|
G|--------8^9--------------------|
B|11~~-9-------------------------|
e|-------------------------------|

The world is falling...
E|---------------------------------|
A|---------------------------------|
D|6-9^8^9-9/11-11-6-9^8^9-4-4^6^4-2|   Repeat 2 times
G|---------------------------------|
B|---------------------------------|
e|---------------------------------|

E|---------------------------------------------|
A|---------------------------------------------|
D|----------------------------------------1^2^1|
G|------------------1^3^1-4-3-----4-3^4^3------|
B|11~-9-7-4^5^4----------4-----4/7-------------|
e|---------------------------------------------|

E|---------------------------------|
A|---------------------------------|
D|6-9^8^9-9/11-11-6-9^8^9-4-4^6^4-2|   Repeat 2 times
G|---------------------------------|
B|---------------------------------|
e|---------------------------------|

This part 4 times:
E|---------------------------------------------------------------------------------------|
A|---------------------------------------------------------------------------------------|
D|-----------------------------------------------------------------------------13-13---13|
G|---------------------------------------------------11-11--11-11--11--11-11-------------|
B|11-11-11-11-11-11-11-11-12-12-12-12-12-12-12-12-12------12-----12--14------11------11--|
e|---------------------------------------------------------------------------------------|

E|----------------------------|
A|-----------------------2--1~|
D|6------------------2-1---2--|    Repeat 2 times
G|--8-6^8^6-4-3^4^3-----------|
B|----------------------------|
e|----------------------------|

This part could be wrong...

E|4-4-4-4-4-4-4-4-2-0-0-0|
A|-----2---2---2---------|
D|-----------------------|   Repeat 8 times
G|-----------------------|
B|-----------------------|
e|-----------------------|

E|4-4-4-4-4-4-4-4-2-0-0-0|
A|-----2---2---2---------|
D|-----------------------|
G|-----------------------|  Mute all and repeat 3 times
B|-----------------------|
e|-----------------------|


E|4-4-4-4-4-4-4-4-2-0-0-0|
A|-----2---2---2---------|
D|-----------------------|   Repeat 4 times
G|-----------------------|
B|-----------------------|
e|-----------------------|

E|----------------------------|
A|-----------------------2--1~|
D|6------------------2-1---2--|    Repeat 2 times
G|--8-6^8^6-4-3^4^3-----------|
B|----------------------------|
e|----------------------------|

E|-------------------------------|
A|-------------------------------|
D|------------9-11-13-8^9--10--/0|
G|--------8^9--------------------|
B|11~~-9-------------------------|
e|-------------------------------|

E|---------------------------------|
A|---------------------------------|
D|6-9^8^9-9/11-11-6-9^8^9-4-4^6^4-2|   Repeat 2 times
G|---------------------------------|
B|---------------------------------|
e|---------------------------------|

Repeat 8times now:
E|---------------------------------------------------------------------------------------|
A|---------------------------------------------------------------------------------------|
D|-----------------------------------------------------------------------------13-13---13|
G|---------------------------------------------------11-11--11-11--11--11-11-------------|
B|11-11-11-11-11-11-11-11-12-12-12-12-12-12-12-12-12------12-----12--14------11------11--|
e|---------------------------------------------------------------------------------------|
And u're done!
Tap to rate this tab
# A B C D E F G H I J K L M N O P Q R S T U V W X Y Z