Song name
# A B C D E F G H I J K L M N O P Q R S T U V W X Y Z

Draconian - End Of The Rope tab

                                   band......Draconian
                                   song.....End of The Rope 
                                   Album...A Rose for the Apocalypse


This tab is NOT 100% but its pretty close..So if you play around with it you 
should be able to figure it out..

Corrections Welcome..

Tuning Dgcfad

Listen to the song for the exact timing.
   


  Riff 1/intro  4X                Riff 1/intro [cont] 14X
  
  |------------------|  Guitar  |----------------|
  |------------------|  Break   |----------------|
  |------------------|          |----------------|
  |------------------|          |----------------|
  |--3--6--5--9------|          |--3--6--5--9----|
  |------------------|          |----------------|



  Verse 1A 2X
  |------------------------------------------|
  |------------------------------------------|
  |------------------------------------------|
  |---8--7--13---8--7--13---7--5--3--0--3----|
  |------------------------------------------|
  |------------------------------------------|


  
  Verse 2b 1X
  |------------------------------------------------|
  |------------------------------------------------|
  |------------------------------------------------|
  |----8--7--13--8--7--13--15--17--15--13--12--10--|
  |------------------------------------------------|
  |------------------------------------------------|


  Riff 2 1X
  |-------------------------------------------------------|
  |-------------------------------------------------------|
  |-------------------------------------------------------|
  |---8~~-8~~-/5--5--5--\7--8--4--4--4--5--5--5/7/8--4--4-|
  |-------------------------------------------------------|
  |-------------------------------------------------------|


  Riff 3 1X
 
  |--3--5--3--5--6--10--8--3--5-6-5-1---3--5--6--10--8---|
  |------------------------------------------------------|
  |------------------------------------------------------|
  |------------------------------------------------------|
  |------------------------------------------------------|
  |------------------------------------------------------|


  Riff 4 1X
  |---------------------------------------|
  |---------------------------------------|
  |---------------------------------------|
  |---------------------------------------|
  |-----6-5-6-----6-5-6-----6-5-6---------|
  |--5---------3---------5---------3--6-6-|

  Riff 4 [Cont]
  |---------------------------------------------|
  |---------------------------------------------|
  |---------------------------------------------|
  |---------------------------------------------|
  |-----6-5-6------6-5-6-----6-5-6--------------|
  |--5---------3----------5---------3-3-6-6-----|



   Riff 5 1X
   |--------------------------------------|
   |--------------------------------------|
   |--------------------------------------|
   |---8~--8~--5-5-5-7-7-4-4-4------------|
   |--------------------------------------|
   |--------------------------------------|

   Ending
   |---------------------------------------------------------------|
   |---------------------------------------------------------------|
   |---------------------------------------------------------------|
   |--------7-5-7---7-5-7b----8-7-8----12-10-12-12-10-8--9---------|
   |---------------------------------------------------------------|
   |----0----------------------------------------------------------|
   

   Thats it Enjoy..


   Song Parts in Order

   Riff1 4X
   Guitar break
   Riff1 14x
   Verse 1A 2x
   Verse 2B 1X
   Verse 1A 3x
   Riff 2 1x
   Riff 3 1x
   Riff 4 1x
   Verse 2B 1X
   Verse 1A 2X
   Riff 5 1x
   Riff 3 1X
   Riff 4 1X
   Ending 
Tap to rate this tab
# A B C D E F G H I J K L M N O P Q R S T U V W X Y Z