Song name
# A B C D E F G H I J K L M N O P Q R S T U V W X Y Z

Draft - Not What I Wanna Do tab

-------------------------------------------------------------------------------
			     NOT WHAT I WANNA DO - The Draft
-------------------------------------------------------------------------------
Tabbed by: Dave
Email: nightmare@int13h.com

Tuning: Standard (EBGDAE)

Intro (w/phaser) x2
e|----------------|----------------|----------------|----------------|
b|----------------|----------------|----------------|----------------|
g|----------------|5-5-5-5-5-5-5-5-|----------------|7-7-7-7-7-7-7-7-|
d|7-7-7-7-7-7-7-7-|5-5-5-5-5-5-5-5-|3-3-3-3-2-2-2-2-|7-7-7-7-7-7-7-7-|
a|7-7-7-7-7-7-7-7-|3-3-3-3-3-3-3-3-|3-3-3-3-2-2-2-2-|5-5-5-5-5-5-5-5-|
e|5-5-5-5-5-5-5-5-|----------------|1-1-1-1-0-0-0-0-|----------------|

Verse 1
e|----------------|----------------|----------------|----------------|
b|----------------|----------------|----------------|----------------|
g|----------------|5-5-5---5-5-5---|----------------|7-7-7---7-7-7---|
d|7-7-7---7-7-7---|5-5-5---5-5-5---|3-3-3---2-2-2---|7-7-7---7-7-7---|
a|7-7-7---7-7-7---|3-3-3---3-3-3---|3-3-3---2-2-2---|5-5-5---5-5-5---|
e|5-5-5---5-5-5---|----------------|1-1-1---0-0-0---|----------------|
pm. .     . .      . .     . .      . .     . .      . .     .  .

e|----------------|----------------|----------------|----------------|
b|----------------|----------------|----------------|----------------|
g|----------------|5-5-5---5-5-5---|----------------|----------------|
d|7-7-7---7-7-7---|5-5-5---5-5-5---|5-5-5---5-5-5---|5-5-5-5-5-5-5-5-|
a|7-7-7---7-7-7---|3-3-3---3-3-3---|5-5-5---5-5-5---|5-5-5-5-5-5-5-5-|
e|5-5-5---5-5-5---|----------------|3-3-3---3-3-3---|3-3-3-3-3-3-3-3-|
pm. .     . .      . .     . .      . .     . . 

e|----------------|----------------|----------------|----------------|
b|----------------|7-------5----7--|----------------|----------------|
g|----------------|7-------5----7--|----------------|7-7-7-7-7-7-7-7-|
d|7-7-7-7-7-7-7-7-|5-------5----5--|3-3-3-3-2-2-2-2-|7-7-7-7-7-7-7-7-|
a|7-7-7-7-7-7-7-7-|----------------|3-3-3-3-2-2-2-2-|5-5-5-5-5-5-5-5-|
e|5-5-5-5-5-5-5-5-|----------------|1-1-1-1-0-0-0-0-|----------------|

e|----------------|----------------|----------------|----------------|
b|----------------|----------------|----------------|----------------|
g|----------------|----------------|----------------|----------------|
d|7-7-7-7-7-7-7-7-|5-5-5-5-5-5-5-5-|3-3-3-3-3-3-3-3-|3-3-3-3-3-3-3-3-|
a|7-7-7-7-7-7-7-7-|5-5-5-5-5-5-5-5-|3-3-3-3-3-3-3-3-|3-3-3-3-3-3-3-3-|
e|5-5-5-5-5-5-5-5-|3-3-3-3-3-3-3-3-|1-1-1-1-1-1-1-1-|1-1-1-1-1-1-1-1-|

Chorus
e|----------------|----------------|----------------|----------------|
b|----------------|----------------|----------------|----------------|
g|5-5-5-5-5-5-5-5-|----------------|----------------|----------------|
d|5-5-5-5-5-5-5-5-|5-5-5-5-5-7-7-7-|5-5-5-5-5-7-7-7-|5-5-5-5-5-5-5-5-|
a|3-3-3-3-3-3-3-3-|5-5-5-5-5-7-7-7-|5-5-5-5-5-7-7-7-|5-5-5-5-5-5-5-5-|
e|----------------|3-3-3-3-3-5-5-5-|1-1-1-1-1-5-5-5-|3-3-3-3-3-3-3-3-|

e|----------------|----------------|----------------|----------------|
b|----------------|----------------|----------------|----------------|
g|5-5-5-5-5-5-5-5-|----------------|----------------|----------------|
d|5-5-5-5-5-5-5-5-|5-5-5-5-5-7-7-7-|5-5-5-5-5-7-7-7-|5-5-5-5-6-6-6-6-|
a|3-3-3-3-3-3-3-3-|5-5-5-5-5-7-7-7-|5-5-5-5-5-7-7-7-|5-5-5-5-6-6-6-6-|
e|----------------|3-3-3-3-3-5-5-5-|1-1-1-1-1-5-5-5-|3-3-3-3-4-4-4-4-|

Bridge 1 (w/phaser) x2
e|----------------|----------------|----------------|----------------|
b|----------------|----------------|----------------|----------------|
g|----------------|5-5-5-5-5-5-5-5-|----------------|7-7-7-7-7-7-7-7-|
d|7-7-7-7-7-7-7-7-|5-5-5-5-5-5-5-5-|3-3-3-3-2-2-2-2-|7-7-7-7-7-7-7-7-|
a|7-7-7-7-7-7-7-7-|3-3-3-3-3-3-3-3-|3-3-3-3-2-2-2-2-|5-5-5-5-5-5-5-5-|
e|5-5-5-5-5-5-5-5-|----------------|1-1-1-1-0-0-0-0-|----------------|

Verse 1

Chorus

Bridge 2
e|----------------|----------------|----------------|----------------|
b|----------------|----------------|----------------|----------------|
g|---5--------3---|---5--------3---|---5--------3---|----------------|
d|7--5--3--2--3---|7--5--3--2--3---|7--5--3--2--3---|-5~-------------|
a|7--3--3--2--5---|7--3--3--2--5---|7--3--3--2--5---|-5~-------------|
e|5-----1--0------|5-----1--0------|5-----1--0------|-3~-------------|

Verse 2
e|----------------|----------------|----------------|----------------|
b|----------------|----------------|----------------|----------------|
g|5-5-5---5-5-5---|5-5-5---5-5-5---|----------------|----------------|
d|5-5-5---5-5-5---|5-5-5---5-5-5---|3-3-3---3-3-3---|3-3-3---3-3-3---| x2
a|3-3-3---3-3-3---|3-3-3---3-3-3---|3-3-3---3-3-3---|3-3-3---3-3-3---|
e|----------------|----------------|1-1-1---1-1-1---|1-1-1---1-1-1---|
pm. .     . .      . .     . .      . .     . .      . .     .  .

e|----------------|----------------|----------------|----------------|
b|----------------|----------------|----------------|----------------|
g|----------------|----------------|----------------|----------------|
d|7~--------------|5~--------------|3~--------------|5~------6~------|
a|7~--------------|5~--------------|3~--------------|5~------6~------|
e|5~--------------|3~--------------|1~--------------|3~------4~------|

Chorus 2
e|----------------|----------------|----------------|----------------|
b|----------------|----------------|----------------|----------------|
g|5-5-5-5-5-5-5-5-|----------------|----------------|----------------|
d|5-5-5-5-5-5-5-5-|5-5-5-5-5-7-7-7-|5-5-5-5-7-7-7-7-|5-5-5-5-5-5-5-5-| x 3
a|3-3-3-3-3-3-3-3-|5-5-5-5-5-7-7-7-|5-5-5-5-7-7-7-7-|5-5-5-5-5-5-5-5-|
e|----------------|3-3-3-3-3-5-5-5-|1-1-1-1-5-5-5-5-|3-3-3-3-3-3-3-3-|

e|----------------|----------------|----------------|----------------|
b|----------------|----------------|----------------|----------------|
g|5-5-5-5-5-5-5-5-|----------------|----------------|----------------|
d|5-5-5-5-5-5-5-5-|5-5-5-5-5-7-7-7-|5-5-5-5-7-7-7-7-|5-5-5-5-6-6-6-6-|
a|3-3-3-3-3-3-3-3-|5-5-5-5-5-7-7-7-|5-5-5-5-7-7-7-7-|5-5-5-5-6-6-6-6-|
e|----------------|3-3-3-3-3-5-5-5-|1-1-1-1-5-5-5-5-|3-3-3-3-4-4-4-4-|

Playout
e|----------------|
b|----------------|
g|-5~-------------|
d|-5~-------------|
a|-3~-------------|
e|----------------|
 
| /  slide up
| \  slide down
| h  hammer-on
| p  pull-off
| ~  vibrato
| +  harmonic
| x  Mute note
===============================================================================
Notes :
This is my first tab, I am sure there is some timing issues in there somewhere 
but its easy enough to work out when playing- There are also some Lead Guitar 
bits I haven't worked out yet though I don't think there is much.
Tap to rate this tab
 
# A B C D E F G H I J K L M N O P Q R S T U V W X Y Z