Song name
# A B C D E F G H I J K L M N O P Q R S T U V W X Y Z

Draft - Alive Or Dead tab

-------------------------------------------------------------------------------
			     ALIVE OR DEAD - The Draft
-------------------------------------------------------------------------------
Tabbed by: Dave
Email: nightmare@int13h.com

Tuning: Standard (eadgbe)

===============================================================================

Intro (x3)
e|----------------|----------------|----------------|----------------|
b|----------------|----------------|----------------|----------------|
g|----------------|----------------|----------------|----------------|
d|----------------|----------------|----------------|----------------|
a|--------7-7-7-7-|--------5-5-5-5-|----------------|----------------|
e|3-3-3-3---------|7-7-7-7---------|5-5-5-5-7-7-7-7-|0-0-0-0-2-2-2-2-|

(Guitar 2 starts playing the Verse on the 3rd time round of the intro)

===============================================================================

Verse 1 
(Guitar 1)
e|----------------|----------------------|----------------|----------------------|
b|----------------|----------------------|----------------|----------------------|
g|----------------|----------------------|----------------|----------------------|
d|----------------|----------------------|----------------|----------------------| (x3)
a|7-7-7-7-5-5-5-5/|10-10-10-10/5--5--5--5|7-7-7-7-5-5-5-5/|10-10-10-10/5--5--5--5|
e|----------------|----------------------|----------------|----------------------|

e|----------------|----------------------|----------------|----------------|
b|----------------|----------------------|----------------|----------------|
g|----------------|----------------------|----------------|----------------|
d|----------------|----------------------|----------------|----7-7-5-------|
a|7-7-7-7-5-5-5-5/|10-10-10-10/5--5--5--5|7-5-7-5-7-5-7-5-|7-5-------7-5-3-|
e|----------------|----------------------|----------------|----------------|

(Guitar 2)
e|----------------|----------------|----------------|----------------|
b|----------------|----------------|----------------|----------------|
g|----------------|----------------|----------------|----------------|
d|5-5-5-5-5-5-5-5-|9-9-9-9-9-9-9-9-|2-2-2-2-2-2-2-2-|2-2-2-2-2-2-2-2-|
a|5-5-5-5-5-5-5-5-|9-9-9-9-9-9-9-9-|2-2-2-2-2-2-2-2-|2-2-2-2-2-2-2-2-|
e|3-3-3-3-3-3-3-3-|7-7-7-7-7-7-7-7-|0-0-0-0-0-0-0-0-|0-0-0-0-0-0-0-0-|

===============================================================================

Chorus (x2)
(Guitar 1)
e|----------------|----------------|----------------|----------------|
b|----------------|----------------|----------------|----------------|
g|5---4-----------|----------------|5--/7-----------|----------------|
d|--------5---7---|7-----7-5-------|--------5---7---|7-----7-5-------|
a|--------------7-|----5-----7-5-3-|--------------7-|----5-----7-5-3-|
e|----------------|----------------|----------------|----------------|

(Guitar 2) (x2)
e|----------------|----------------|----------------|----------------|
b|----------------|----------------|----------------|----------------|
g|----------------|4-4-4-4-4-4-4-4-|5-5-5-5-5-5-5-5-|5-5-5-5-5-5-5-5-|
d|7-7-7-7-7-7-7-7-|4-4-4-4-4-4-4-4-|5-5-5-5-5-5-5-5-|5-5-5-5-5-5-5-5-|
a|7-7-7-7-7-7-7-7-|2-2-2-2-2-2-2-2-|3-3-3-3-3-3-3-3-|3-3-3-3-3-3-3-3-|
e|5-5-5-5-5-5-5-5-|----------------|----------------|----------------|

e|----------------|----------------|----------------|----------------|
b|----------------|----------------|----------------|----------------|
g|----------------|4-4-4-4-4-4-4-4-|5-5-5-5-5-5-5-5-|7-7-7-7-7-7-7-7-|
d|7-7-7-7-7-7-7-7-|4-4-4-4-4-4-4-4-|5-5-5-5-5-5-5-5-|7-7-7-7-7-7-7-7-|
a|7-7-7-7-7-7-7-7-|2-2-2-2-2-2-2-2-|3-3-3-3-3-3-3-3-|5-5-5-5-5-5-5-5-|
e|5-5-5-5-5-5-5-5-|----------------|----------------|----------------|

===============================================================================

Bridge (x2)
e|----------------|----------------|----------------|----------------|
b|----------------|----------------|----------------|----------------|
g|----------------|----------------|----------------|----------------|
d|----------------|----------------|----------------|----------------|
a|--------7-7-7-7-|--------5-5-5-5-|----------------|----------------|
e|3-3-3-3---------|7-7-7-7---------|5-5-5-5-7-7-7-7-|0-0-0-0-2-2-2-2-|

===============================================================================

Verse 2
e|----------------|----------------|----------------|----------------------|
b|----------------|----------------|----------------|----------------------|
g|----------------|----------------|----------------|9~---------12--11-\9--|
d|----------------|----------------|----------------|----------------------|
a|----------------|----------------|----------------|----------------------|
e|----------------|----------------|----------------|----------------------|

e|----------------|----------------------|----------------|----------------------|
b|----------------|----------------------|----------------|----------------------|
g|----------------|----------------------|----------------|----------------------|
d|----------------|----------------------|----------------|----------------------|
a|7-7-7-7-5-5-5-5/|10-10-10-10/5--5--5--5|7-7-7-7-5-5-5-5/|10-10-10-10/5--5--5--5|
e|----------------|----------------------|----------------|----------------------|

e|----------------|----------------|----------------|----------------|
b|----------------|----------------|----------------|----------------|
g|----------------|----------------|----------------|----------------|
d|5-5-5-5-5-5-5-5-|9-9-9-9-9-9-9-9-|2-2-2-2-2-2-2-2-|2-2-2-2-2-2-2-2-|
a|5-5-5-5-5-5-5-5-|9-9-9-9-9-9-9-9-|2-2-2-2-2-2-2-2-|2-2-2-2-2-2-2-2-|
e|3-3-3-3-3-3-3-3-|7-7-7-7-7-7-7-7-|0-0-0-0-0-0-0-0-|0-0-0-0-0-0-0-0-|

===============================================================================

Chorus

===============================================================================

Bridge 2
(Guitar 1)
e|----------------| 
b|----------------|
g|----------------|
d|----------------| (x2) Then pick slide...
a|3---2^3-0-------|
e|----------------|

e|----------------|----------------|----------------|----------------|
b|----------------|----------------|----------------|----------------|
g|----------------|----------------|----------------|----------------|
d|----------------|----------------|----------------|----------------| (x2)
a|--------7-7-7-7-|--------5-5-5-5-|----------------|----------------|
e|3-3-3-3---------|7-7-7-7---------|5-5-5-5-7-7-7-7-|0-0-0-0-2-2-2-2-|

(Guitar 2)
e|----------------|----------------------|
b|----------------|----------------------|
g|----------------|7--9----12-14-12-12~--|
d|----------------|----------------------|
a|----------------|----------------------|
e|----------------|----------------------|

e|----------------|----------------|----------------|----------------|
b|----------------|----------------|----------------|----------------|
g|----------------|----------------|----------------|----------------|
d|----------------|----------------|3~--------------|----------------|
a|----------------|----------------|3~--------------|----------------|
e|----------------|----------------|5~--------------|----------------|

e|----------------|----------------------|----------------|----------------|
b|----------------|----------------------|----------------|----------------|
g|----------------|----------------------|----------------|----------------|
d|----------------|----------------------|----------------|----7-7-5-------|
a|7-7-7-7-5-5-5-5/|10-10-10-10/5--5--5--5|7-5-7-5-7-5-7-5-|7-5-------7-5-3-|
e|----------------|----------------------|----------------|----------------|

===============================================================================

Chorus

===============================================================================

Outro
(Guitar 1)
e|----------------|----------------|
b|----------------|----------------|
g|----------------|----------------|
d|----------------|----------------|
a|3---2^3-0-------|3---2^3---------|
e|----------------|--------3-------|

(Guitar 2)
e|----------------|----------------|
b|----------------|----------------|
g|----------------|5--4h5p4--------|
d|----------------|--------5-------|
a|----------------|----------------|
e|----------------|----------------|

===============================================================================

| /  slide up
| \  slide down
| ^  bend
| h  hammer-on
| p  pull-off
| ~  vibrato
| +  harmonic
| x  Mute note
===============================================================================
Tap to rate this tab
# A B C D E F G H I J K L M N O P Q R S T U V W X Y Z