Song name
# A B C D E F G H I J K L M N O P Q R S T U V W X Y Z

Dragon Ash - Life Goes On tab

Tabbed By. Rob M

http://www.dragonash.co.jp/
Japan

Intro/outro

E----3-------2-------0-------0-------
B-----0-------0-------0-------0------
G------0-------0-------0-------0-----
D------------------------------------
A-----------00---------------33------
E-33----------------00---------------


Just about every other part of the song

E--------------------------
B--------------------------
G--------55---------55-----
D-55-xxx-55--77-xxx-55-----
A-55-xxx-33--77-xxx-33-----
E-33-xxx-----55-xxx--------


"Distorted part"

E------------------------
B------------------------
G----77------------------
D-55-77-99----55-77-55---
A-55-55-99----55-77-55---
E-33----77----33-55-33---
Tap to rate this tab
# A B C D E F G H I J K L M N O P Q R S T U V W X Y Z