Song name
# A B C D E F G H I J K L M N O P Q R S T U V W X Y Z

Dragonforce - Revolutions tab

----------------------------------------------------------------------------
                   REVOLUTION DEATHSQUAD-Dragonforce
----------------------------------------------------------------------------

Tabbed by: Max
Email: maxvader@optonline.net

Tuning: Standard

|--00-11--00-11---5-11-33-00-11--00-|--00-11---6--666-5-5-5|
|33-----33-----333-------------33--1|33-----333------------|
|-----------------------------------|----------------------|
|-----------------------------------|----------------------|
|-----------------------------------|----------------------|
|-----------------------------------|----------------------|

|1---0-------|1--3-5-5--3\1|1---0-------|1--3-5-5-18-17|
|------3--1--|-------------|------3--1--|--------------|
|-----------2|-------------|-----------2|--------------|
|------------|-------------|------------|--------------|
|------------|-------------|------------|--------------|
|------------|-------------|------------|--------------|

/ slide up
\ slide down
h hammer on
p pull off
~ vibrato
+ harmonic
x mute note
wh whammy bar
Tap to rate this tab
# A B C D E F G H I J K L M N O P Q R S T U V W X Y Z