Song name
# A B C D E F G H I J K L M N O P Q R S T U V W X Y Z

Dragonforce - Soldiers Of The Wastelands tab

e|----------------------------------------------------------------------|
B|----------------------------------------------------------------------|
G|----14-16-16-14-16-14----14----------------9-9-9-11-9----9------------|
D|-16-------------------16----16-14-16--9-12------------12---12-9----9~-|
A|----------------------------------------------------------------12----|
E|----------------------------------------------------------------------|

e|------------------------------------------------------|
B|------------------------------------------------------|
G|------9-11-9----9-11-9---------------9-11-9----9-11-9-|
D|-9-12--------12---------12-9----9-12--------12--------|
A|-----------------------------12-----------------------|
E|------------------------------------------------------|

e|-------------------------------------------------------------|
B|-------------------------------------------------------------|
G|------9-11-9----9-<11>-9--------------9-11-9-----9-----------|
D|-9-12--------12----------12-9----9-12---------12---12-9----9-|
A|------------------------------12------------------------12---|
E|-------------------------------------------------------------|


(this part i don't have quite right yet, but it's a start)

e|-----------------------------------------------------------------------|
B|-----------------------------------------------------------------------|
G|-------14-16-14----14-16-14-------------------14-16-14----14-<16>BwRb--|
D|-14-16----------16----------16-14-------14-16----------16--------------|
A|----------------------------------15,14(whichever sounds better)-------|
E|-----------------------------------------------------------------------|

e|---------------------------------------------------------------|
B|---------------------------------------------------------------|
G|-14~-------9-11-9----9-11-9--------------9-11-9----9-----------|
D|------9-12--------12--------12-9----9-12--------12---12-9----9-|
A|---------------------------------12-----------------------12---|
E|---------------------------------------------------------------|

e|------------------------------------------------------------------------|
B|------------------------------------------------------------------------|
G|------------------------------------------------------------------------|
D|-7/9-9-9-9-12\9-9-9-9-12\9-9-9-9-12-11-12-14----7/9-9-9-9-12\9-9-9-9-7~-|
A|-7/9-9-9-9-12\9-9-9-9-12\9-9-9-9-12-11-12-14----7/9-9-9-9-12\9-9-9-9-7~-|
E|-5/7-7-7-7-10\7-7-7-7-10\7-7-7-7-10-9--10-12-X3-5/7-7-7-7-10\7-7-7-7-5~-|
         .          .          .                        .          .

DROP D TUNING

e|------------------------------------------------------------------------|
B|------------------------------------------------------------------------|
G|------------------------------------------------------------------------|
D|-7/9-9-9-9-12\9-9-9-9-12\9-9-9-9-12-11-12-14----7/9-9-9-9-12\9-9-9-9-7~-|
A|-7/9-9-9-9-12\9-9-9-9-12\9-9-9-9-12-11-12-14----7/9-9-9-9-12\9-9-9-9-7~-|
E|-7/9-9-9-9-12\9-9-9-9-12\9-9-9-9-12-11-12-14 X3 7/9-9-9-9-12\9-9-9-9-7~-|
Tap to rate this tab
# A B C D E F G H I J K L M N O P Q R S T U V W X Y Z