Song name
# A B C D E F G H I J K L M N O P Q R S T U V W X Y Z

Dragonforce - Starfire tab

Starfire Solo
Dragonforce


Acoustic And Electric Guitars Tuned To E Standard.

Acoustic Solo

Sam Totman

-----------------------------------5-5h7p5----------------------------------------|
------------4-5-4-/7b(8)-8-~~~~-8-------------8----8\7-7--8\7-----0--------8-8h10-|
------0-2-4-----------------------------------------------------7----7------------|
----0-----------------------------------------------------------------------------|
----------------------------------------------------------------------------------|
----------------------------------------------------------------------------------|

----7-7--7-8--8/10-/12--14h15--15-15-|
-10----------------------------------|
-------------------------------------|
-------------------------------------|
-------------------------------------|
-------------------------------------|

--15-14--12h14p12h14p12----------------/8-7-8p7h8p7\5---7h8--8--7p5-0-|
------------------------15-13p12-13-15\---------------8-------------7-|
--------------------------------------------------------------------8-|
----------------------------------------------------------------------|
----------------------------------------------------------------------|
----------------------------------------------------------------------|


Distortion Solo

Herman Li


|-----------12h-14-14b(15)~-----14r--12----|
|--------13-----------------------------12-|
|-----12-----------------------------------|
|-/14--------------------------------------|
|------------------------------------------|
|------------------------------------------|

--------------------------------------------|
--15(17)br----15-15~----13-12-13p-12--------|
-------------------------------------14p-12-|
--------------------------------------------|
--------------------------------------------|
--------------------------------------------|

---------------------------------------|---------------------------------|
---------------------------------------|---------------------------------|
--14br--------14p-12h-14~-------12p-11-|--12~---11----11-----------------|
---------------------------------------|-----------14----14--------------|
---------------------------------------|--------------------14~----------|
---------------------------------------|---------------------------------|

--/17------15h-17~--------15p-14-|
---------------------------------|
---------------------------------|
---------------------------------|
---------------------------------|
---------------------------------|


--15p-14p-12~-14----------------------------------------------|
-----------------15p-12-15p-12--------------------------------|
-------------------------------14p-12-14-14b-14p-12h-14\~-----|
--------------------------------------------------------------|
--------------------------------------------------------------|
--------------------------------------------------------------|

Wait for itttt..


Huge Scale! :]

-------------------------------------------------------------|
--------------------------------12h-13p-12----12-------------|
---------11h-12p-11----11-12-14------------14----14-12-11-12-|
--/12-14------------14---------------------------------------|
-------------------------------------------------------------|
-------------------------------------------------------------|

--------------------------------------------------------------------------------|
--------------------12h-13-15p-13p-12------------------12h-13h-15--------12h-13-|
---------11h-12h-14-------------------14p-12-11h-12-14------------12h-14--------|
--12h-14------------------------------------------------------------------------|
--------------------------------------------------------------------------------|
--------------------------------------------------------------------------------|

-------------------14---------------14h-15--------12h-14-15h-17--------14h-15h-17/19|
-----12h-13-15h-17----12h-13-15h-17--------13h-15---------------15h-17--------------|
--14--------------------------------------------------------------------------------|
------------------------------------------------------------------------------------|
------------------------------------------------------------------------------------|
------------------------------------------------------------------------------------|

--22b~-----------------|
-----------------------|
-----------------------|
-----------------------|
-----------------------|
-----------------------|

Pretty simple :] thanks for looking
Tap to rate this tab
# A B C D E F G H I J K L M N O P Q R S T U V W X Y Z