Song name
# A B C D E F G H I J K L M N O P Q R S T U V W X Y Z

Dragonforce - Once In A Lifetime tab

Help us improve GuitareTab! Take a short survey!
E-------------------------------------|
B--12--12--14--12-9-7---/12--9--7--9--|
G-------------------------------------|
D-------------------------------------|
A-------------------------------------|
E-------------------------------------|

E--------------------------------------|
B-12--12--9--12--14--17-/19-17-/21-\17-|
G--------------------------------------|
D--------------------------------------|
A--------------------------------------|
E--------------------------------------|

E------------------------------22b-19-21-|
B-12-14-17-17-19-17--14-12-14------------|
G----------------------------------------|
D----------------------------------------|
A----------------------------------------|
E----------------------------------------|

                                   A.H
E----------------------------------21**-|
B--9-12-12-12-14-12-9-12-12-14-17-------|
G---------------------------------------|
D---------------------------------------|
A---------------------------------------|
E---------------------------------------|

         A.H         A.H
E--------/21**-12---------------------------------|
B--12-14----------14-14b**--12-14-17-19-/22-21-19-|
G-------------------------------------------------|
D-------------------------------------------------|
A-------------------------------------------------|
E-------------------------------------------------|

                        A.H
E----------------------------------------------|
B-17-/22-21-17-17-19-21-21b~~~~----------------|
G----------------------------------------------|
D----------------------------------------------|
A----------------------------------------------|
E----------------------------------------------|

FAST (if you havn't guessed yet)

00:32
E---------------------------------------------------------------|
B---------------------------------------------------------------|
G-13-9-9-11-9-9-11-9-9-13-9-9-13-9-9-11-9-9-13-9-9-14-9-9-------|
D---------------------------------------------------------------|  x3
A---------------------------------------------------------------|
E---------------------------------------------------------------|


E------------------------------------------------------------|
B------------------------------------------------------------|
G-11-8-8-9-8-8-9-8-8-11-8-8-11-8-8-9-8-8-11-8-8-13-----------|
D------------------------------------------------------------|
A------------------------------------------------------------|
E------------------------------------------------------------|


E---------------------------------------------------------------|
B---------------------------------------------------------------|
G-13-9-9-11-9-9-11-9-9-13-9-9-13-9-9-11-9-9-13-9-9-14-9-9-------|
D---------------------------------------------------------------|  x3
A---------------------------------------------------------------|
E---------------------------------------------------------------|


E------------------------------------------------------------|
B------------------------------------------------------------|
G-11-8-8-9-8-8-9-8-8-11-8-8-11-8-8-9-8-8-11-8-8-13-----------|
D------------------------------------------------------------|
A------------------------------------------------------------|
E------------------------------------------------------------|


E---------------------------------------------------------------------|
B---------------------------------------------------------------------|
G-16-13-13-14-13-13-14-13-13-16-13-13-16-13-13-14-13-13-16-13-13-18---|
D---------------------------------------------------------------------|
A---------------------------------------------------------------------|  x2
E---------------------------------------------------------------------|


E---------------------------------------------------------|
B---------------------------------------------------------|
G-13-9-9-11-9-9-11-9-9-13-9-9-13-9-9-11-9-9-13-9-9-14-9-9-|
D---------------------------------------------------------|
A---------------------------------------------------------|
E---------------------------------------------------------|


E------------------------------------------------------------|
B------------------------------------------------------------|
G-11-8-8-9-8-8-9-8-8-11-8-8-11-8-8-9-8-8-11-8-8-13-8-8-------|
D------------------------------------------------------------|
A------------------------------------------------------------|
E------------------------------------------------------------|


E---------------------------------------------------------------------|
B---------------------------------------------------------------------|
G-16-13-13-14-13-13-14-13-13-16-13-13-16-13-13-14-13-13-16-13-13-18---|
D---------------------------------------------------------------------|
A---------------------------------------------------------------------|  x3
E---------------------------------------------------------------------|


E----------------------------------------------------------------------------|
B-16-13-13-14-13-13-14-13-13-16-13-13-16-13-13-14-13-13-16-13-13-17-13-13-17-|
G----------------------------------------------------------------------------|
D----------------------------------------------------------------------------|
A----------------------------------------------------------------------------|
E----------------------------------------------------------------------------|

There you go  that should be it
this is a very fun intro to play
its very easy too

this is my first tab so if u have any complaints or corrections please tell me

key
--------
A.H--Artificial Hamonic
** --im not sure its the right note
b  --bend
~~ --vibrato
Related for Once In A Lifetime tab