Song name
# A B C D E F G H I J K L M N O P Q R S T U V W X Y Z

Dragonforce - Disciples Of Babylon tab

Tabbed by unregisturd
Dragonforce - Disciples of Babylon
Valley of the Damned


this just the intro try to keep up and enjoy

|--------------------------------------------------------|
|--------------------------------------------------------|
|--------------------------------------------------------|
|--7-----------------------3-x-3-x-3-5-x-5-x-5-----------|
|--77777777----------------3-x-3-x-3-5-x-5-x-5-----------|
|--55555555-8-7-8-10-8-7-0-1-x-1-x-1-3-x-3-x-3-----------|

|--------------------------------------------------------|
|--------------------------------------------------------|
|--------------------------------------------------------|
|--7-----------------------3-x-3-x-3-5-x-5-x-5-----------|
|--77777777----------------3-x-3-x-3-5-x-5-x-5-----------|
|--55555555-8-7-8-10-8-7-0-1-x-1-x-1-3-x-3-x-3-----------|

|--------------------------------------------------------|
|--------------------------------------------------------|
|--------------------------------------------------------|
|--7-----------------------3-x-3-x-3-5-x-5-x-5-----------|
|--77777777----------------3-x-3-x-3-5-x-5-x-5-----------|
|--55555555-8-7-8-10-8-7-0-1-x-1-x-1-3-x-3-x-3-----------|
Tap to rate this tab
 
# A B C D E F G H I J K L M N O P Q R S T U V W X Y Z