Song name
# A B C D E F G H I J K L M N O P Q R S T U V W X Y Z

Dragonforce - Starfire tab

Starfire - Dragonforce
2nd Solo
                                                   
      E   E   E   E   E   Q.          H         Q       E   E   
E||--------------12--14--14b~------|--L--------14br----12------|
B||----------12--------------------|-----------------------12--|
G||------12------------------------|---------------------------|
D||--14----------------------------|---------------------------|
A||--------------------------------|---------------------------|
E||---- ---------------------------|---------------------------|


   H.             E   E      Q.      E   E   E   S  S  S  S  
-------------------------|----------------------------------|
--15br------------L--15--|--15------15--13--12--13-12-10----|
-------------------------|-------------------------------12-|
-------------------------|----------------------------------|
-------------------------|----------------------------------|
-------------------------|----------------------------------|


   H          Q       E   E       H        E   E   E   E   
------------------------------|---------------------------|
--10b--------10br--------10~--|---L--------L--10----------|
---------------------12-------|-------------------12--11--|
------------------------------|---------------------------|
------------------------------|---------------------------|
------------------------------|---------------------------|


   H          E   E  E   S S    H         Q    Q     
-----------------------------|----------------------|
-----------------------------|----------------------|
--12~--------12--11--9--11-9-|----------------------|
-----------------------------|--9~--------L---------|
-----------------------------|----------------------|
-----------------------------|----------------------|


   H          Q       E   E      H        S. T  E   E   E   
--17b--------17br----15--17--|---L--------L--L-17--15--14--|
-----------------------------|-----------------------------|
-----------------------------|-----------------------------|
-----------------------------|-----------------------------|
-----------------------------|-----------------------------|
-----------------------------|-----------------------------|


   S  S  E   E   E   E   E   E   E      E   E   E    S  S  H          
--15-14-12--14--10------10----------|--------------------------------|
--------------------12------12--10--|------10--10b--10----10~--------|
------------------------------------|--12--------------12------------|
------------------------------------|--------------------------------|
------------------------------------|--------------------------------|
------------------------------------|--------------------------------|


   E   E   S   S   E   E   E   E   E      E   S   S   E   E   E   S  S  Q     
--------------------------------------|--------------------------------------|
----------------------------------10--|--12--13p-12p-10--12--10--------------|
----------11h-12p-11------11--12------|--------------------------12-11-12----|
--12--14--------------14--------------|--------------------------------------|
--------------------------------------|--------------------------------------|
--------------------------------------|--------------------------------------|


   |--3--|  |--3--|  |--3--|  |--3--|  |--3--|  |--3--|  |--3--|  |--3--|  
   S  S  S  S  S  S  S  S  S  S  S  S  S  S  S  S  S  S  S  S  S  S  S  S  
--------------------------------------------------------------------------|
--------------------13-15-13-12----------------12-13-15-------12-13-15-17-|
-----------12-14-16-------------14-12----12-14----------12-14-------------|
--12-14-16----------------------------16----------------------------------|
--------------------------------------------------------------------------|
--------------------------------------------------------------------------|


   |--3--|  |--3--|  |--3--|  |--3--|  |--3--|  |--3--|  |--3--|  |--3--|  
   S  S  S  S  S  S  S  S  S  S  S  S  S  S  S  S  S  S  S  S  S  S  S  S  
--------------12-14----------12-14-15-------12-14-15-17----12-14-15-17-19-|
-----12-13-15-------12-13-15----------13-15-------------15----------------|
--14----------------------------------------------------------------------|
--------------------------------------------------------------------------|
--------------------------------------------------------------------------|
--------------------------------------------------------------------------|


   W                    W                  
--22b----------------|--L----------------||
---------------------|-------------------||
---------------------|-------------------||
---------------------|-------------------||
---------------------|-------------------||
---------------------|-------------------||




Duration Legend
---------------
W - whole
H - half
Q - quarter
E - 8th
S - 16th
. - note dotted
|-n-|  - n-tuplets


Tablature Legend
----------------
L - tied note
h - hammer on
p - pull off
b - bend
br - bendRelease
~ - vibrato
Tap to rate this tab
 
# A B C D E F G H I J K L M N O P Q R S T U V W X Y Z