Song name
# A B C D E F G H I J K L M N O P Q R S T U V W X Y Z

Dragonforce - Trail Of Broken Hearts tab

                  Trail of Broken Hearts Solo (DragonForce)

Electric Guitar I
                                               PH          
     Q     E  E  E   E  E  E     E  E  E  E    E   Q.      
E||-------/9--9--9s--7--5-----|--------------<>5s--9------|
B||------------------------5--|--L--5--7--5---------------|
G||---------------------------|---------------------------|
D||---------------------------|---------------------------|
A||---------------------------|---------------------------|
E||---------------------------|---------------------------|


      |---3--|                             
   E  S   S  S  E   E   E  E      E    E   
--12--9h-12p-9----------------------------|
---------------12--10--12-----12g14s--12--|
------------------------------------------|
------------------------------------------|
------------------------------------------|
------------------------------------------|


          \0/ \0/ \0/ \0/ \0/  
  E  Q    E   E   E   E   E    
------------------------------|
------------------------------|
-----9----9---9---9---9---9---|
------------------------------|
------------------------------|
------------------------------|


   tr          tr          tr        
   Q.          Q.          Q         
--------------------------14(17)----|
--------------14(17)----------------|
--11(14)----------------------------|
------------------------------------|
------------------------------------|
------------------------------------|


   T           tr          tr        
   Q.          Q.          Q         
--21(17)------14(17)----------------|
--------------------------19(14)----|
------------------------------------|
------------------------------------|
------------------------------------|
------------------------------------|


                   |-----3-----|     
   E   E   E   E   Q     Q     Q     
--------------17--21----24----21----|
--17--14--17------------------------|
------------------------------------|
------------------------------------|
------------------------------------|
------------------------------------|


   S   S   Q.       E   E   E   E   
--19h-21p-19~-------L--------------|
-----------------------17--19--17--|
-----------------------------------|
-----------------------------------|
-----------------------------------|
-----------------------------------|


   E    E   E   E    E   E  E    E   
--21s--17--17--17s--12--12--9s--12--|
------------------------------------|
------------------------------------|
------------------------------------|
------------------------------------|
------------------------------------|


   T      T      T      T      T      T      T      T      T     
   |---3--|   |---3--|  |---3--|   |---3--|  |---3--|   |---3--| 
   S   S  S   S  S   S  S   S  S   S  S   S  S   S  S   S  S   S 
--21p-17-21p-17-21p-17-21p-17-21p-17-21p-17-24p-17-24p-17-24p-17-
-----------------------------------------------------------------
-----------------------------------------------------------------
-----------------------------------------------------------------
-----------------------------------------------------------------
-----------------------------------------------------------------


    E   E   E   E   E  E      E   E    
--/21--19--19--17--19-----19g21--19~--|
--------------------------------------|
--------------------------------------|
--------------------------------------|
--------------------------------------|
--------------------------------------|


   H         E   E   E   E      E    Q.      Q     E    E   
---L---------L--17--19--17--|--21s--24------24----21s--17--|
----------------------------|------------------------------|
----------------------------|------------------------------|
----------------------------|------------------------------|
----------------------------|------------------------------|
----------------------------|------------------------------|


   E   E    E    E    E    E   E   E   
---L--17s--19s--17s--19s--17------17--|
------------------------------19------|
--------------------------------------|
--------------------------------------|
--------------------------------------|
--------------------------------------|


                             |---3---|                     
     S  S  S  S  S  S  S  S  S   S   S  S  S  S  S  S   S  
----------------------------------------------------------|
----------------------------14h-17p-14----------14-17s-19-|
--<>14-13----------13-14-16------------16-14-16-----------|
----------16-14-16----------------------------------------|
----------------------------------------------------------|
----------------------------------------------------------|


   S  S  S  S  S  S  S  S  S  S  S  S  S  S  S  S  
-----------------------------------------------16-|
--19-17----------------------------17-19-17-19----|
--------18----16-18-16----18-16-18----------------|
-----------19----------19-------------------------|
--------------------------------------------------|
--------------------------------------------------|


    E   E   E   E   E   E   E   E    
------------------------------------|
------------------------------------|
--/11--11--11--11--11--13--14-------|
-------------------------------14~--|
------------------------------------|
------------------------------------|


   Q.      E   Q     E      E   
-------------------------------|
----------14--15~--------------|
------------------------11g14--|
---L---------------------------|
-------------------------------|
-------------------------------|


   E   E   E   E   E   E   E   E   
----------------------------------|
--14------15------17--15--14--15--|
------14------14------------------|
----------------------------------|
----------------------------------|
----------------------------------|


                     |---3--|             
   E   S   S  E      S   S  S  H          
-----------------------------------------|
-----------------------------------------|
--14--16p-14-16br--(16)-14----14~--------|
---------------------------16------------|
-----------------------------------------|
-----------------------------------------|


  E  S   S  S S   S  S  S  S  S   S    E     S   S   
--------------------------12-14S-17h-(17)p--16h-17p-|
-----------------------12---------------------------|
--------------9s-11-14------------------------------|
-----------11---------------------------------------|
-----9h-12------------------------------------------|
----------------------------------------------------|


              T          T          T      T             
   |---3---|  |---3---|  |---3---|  |---3--|             
   S   S   S  S   S   S  S   S   S  S   S  S  Q.     E   
--16h-17p-14-17p-12h-14-17p-14p-12-17p-12-17p-9---------|
--------------------------------------------------------|
--------------------------------------------------------|
--------------------------------------------------------|
--------------------------------------------------------|
--------------------------------------------------------|


   >      >      >      >      >      >      
   |---3--|  |---3--|   |---3--|  |---3--|   
   E  E   E  E   E  E   E  E   E  E   E  E   
-----------------------14-----16-----17-----|
--14-----15-----17--------------------------|
--------------------------------------------|
--------------------------------------------|
--------------------------------------------|
--------------------------------------------|


                                               PH               
   Q      E    E    H             H            Q.        S   S  
--19b-----L--(19)-------------|--------------------------------|
-------------------17~--------|--15b--------<>15b~------14p-12-|
------------------------------|--------------------------------|
------------------------------|--------------------------------|
------------------------------|--------------------------------|
------------------------------|--------------------------------|


   H.             S   S  E   
-----------------12h-14-16--|
----------------------------|
--14~-----------------------|
----------------------------|
----------------------------|
----------------------------|


   E    Q.          Q      E    S   S  
--16b---Lpbr~------16----(16)--14p-12-|
--------------------------------------|
--------------------------------------|
--------------------------------------|
--------------------------------------|
--------------------------------------|


   H         Q        E    E      H          E   E   E   E   
------------------------------|-----------------------------|
--14--------17br----(17)--14--|--15~--------15--14----------|
------------------------------|---------------------16--14--|
------------------------------|-----------------------------|
------------------------------|-----------------------------|
------------------------------|-----------------------------|


   Q     E   E   E   Q     E       H         Q       E   E     
------------17---L--------19b--|---L--------19b~-----L--19br--|
--17----------------17---------|------------------------------|
--------18---------------------|------------------------------|
-------------------------------|------------------------------|
-------------------------------|------------------------------|
-------------------------------|------------------------------|


                                     |---3---|  
   H          S  T   T   S  S  S  S  S   S   S  
--19~---------L-19p-17p-16----16---------------|
---------------------------19----19-19p-17p-16-|
-----------------------------------------------|
-----------------------------------------------|
-----------------------------------------------|
-----------------------------------------------|


   Q         Q     E   E   E   E   
--16~-----------------------------|
----------------------------------|
---------11g13----13--11--13--14--|
----------------------------------|
----------------------------------|
----------------------------------|


   E   E      E   E    H         
--------------------------------|
------12--12g14-----------------|
---L----------------------------|
-----------------16~---L--------|
--------------------------------|
--------------------------------|


  Q        Q     E   E   E   E   
--------------------------------|
-------12g15----15--14--15--17--|
--------------------------------|
--------------------------------|
--------------------------------|
--------------------------------|


   E      E   E   E   E   E   Q     
-----------------------------------|
---L--17g19--17--15--14------14----|
-------------------------16--------|
-----------------------------------|
-----------------------------------|
-----------------------------------|


                      |-----3-----|     
      E   E   E   E   Q     Q     Q     
--14g17--17--17--16--17----16----------|
---------------------------------17----|
---------------------------------------|
---------------------------------------|
---------------------------------------|
---------------------------------------|


      H         Q.         E      Q     E      E   H         
------------------------------|-----------------------------|
--17g21---------L-------------|--15----17--17g14---L--------|
-----------------------21g17--|-----------------------------|
------------------------------|-----------------------------|
------------------------------|-----------------------------|
------------------------------|-----------------------------|


       |---3---|          |-----3-----|     
   E   S   S   S  E   E   Q     Q     Q     
---------------------19--21----22----24----|
---L--19h-22p-19-22------------------------|
-------------------------------------------|
-------------------------------------------|
-------------------------------------------|
-------------------------------------------|


   S   S  Q.       Q     Q        Q    H        Q      
--22h-24-22~-------L----21----|--21------------------||
------------------------------|----------------------||
------------------------------|----------------------||
------------------------------|----------------------||
------------------------------|----------------------||
------------------------------|----------------------||



Electric Guitar 2
     Q      E   E   E   E   E  E     E  E  E  E  E   Q.      
E||-------------------------------|-------------------------|
B||-------/10--10--10s--9p--7-----|-------------------------|
G||----------------------------6--|--L--6--7--6--7s--9------|
D||-------------------------------|-------------------------|
A||-------------------------------|-------------------------|
E||-------------------------------|-------------------------|


       |---3---|                         
   E   S   S   S E   E  E  E     E   E   
----------------------------------------|
--14--10h-14p-10-9------9-----9g10p--9--|
--------------------11------------------|
----------------------------------------|
----------------------------------------|
----------------------------------------|


  E   Q     E   E   E   E   E                           
-------------------------------|-------|-------|-------|
-------------------------------|-------|-------|-------|
-------------------------------|-------|-------|-------|
-----11----11--11--11--11--11--|-------|-------|-------|
-------------------------------|-------|-------|-------|
-------------------------------|-------|-------|-------|


  H        E    E   E   E   
---------------------------|
---------------------------|
--------------/18--19--18--|
---------------------------|
---------------------------|
---------------------------|


   E    E   E   E    E   E   E    E   
-------------------------------------|
--22s--17--17--17s--14--14--10s--14--|
-------------------------------------|
-------------------------------------|
-------------------------------------|
-------------------------------------|


   T      T      T      T      T      T      T      T      T     
   |---3--|   |---3--|  |---3--|   |---3--|  |---3--|   |---3--| 
   S   S  S   S  S   S  S   S  S   S  S   S  S   S  S   S  S   S 
--17p-12-17p-12-17p-12-17p-12-17p-12-17p-12-21p-12-21p-12-21p-12-
-----------------------------------------------------------------
-----------------------------------------------------------------
-----------------------------------------------------------------
-----------------------------------------------------------------
-----------------------------------------------------------------


    E   E   E   E   E  E      E   E     
--/17--16--16------16-----16g17--16h~--|
---------------19----------------------|
---------------------------------------|
---------------------------------------|
---------------------------------------|
---------------------------------------|


    H           E   E   E   E      E    Q.      Q     E    E   
--(16)~---------L------16------|--17s--21------21----17s--14--|
-------------------19------19--|------------------------------|
-------------------------------|------------------------------|
-------------------------------|------------------------------|
-------------------------------|------------------------------|
-------------------------------|------------------------------|


   E   E    E    E    E    E   E   E   
---L--12s--14s--12s--14s--12------12--|
------------------------------14------|
--------------------------------------|
--------------------------------------|
--------------------------------------|
--------------------------------------|


                           |--3--|                    
   S  S  S  S  S  S  S  S  S  S  S  S  S  S  S  S  S  
--------------------------12-17-12-------------16-17-|
--14-12----------12-14-17----------15-14-15-17-------|
--------14-13-14-------------------------------------|
-----------------------------------------------------|
-----------------------------------------------------|
-----------------------------------------------------|


   S  S  S  S  S  S  S  S  S  S  S  S  S  S  S  S  
--17-16----------------------------16-17-16-17-19-|
--------17----15-17-15----17-15-17----------------|
-----------18----------18-------------------------|
--------------------------------------------------|
--------------------------------------------------|
--------------------------------------------------|


    W                                                         
--/21----------------|-------|-------|-------|-------|-------|
---------------------|-------|-------|-------|-------|-------|
---------------------|-------|-------|-------|-------|-------|
---------------------|-------|-------|-------|-------|-------|
---------------------|-------|-------|-------|-------|-------|
---------------------|-------|-------|-------|-------|-------|


   >      >      >      >      >      >      
   |---3--|  |---3--|   |---3--|  |---3--|   
   E  E   E  E   E  E   E  E   E  E   E  E   
-------------------------------------14-----|
----------------14-----15-----17------------|
--14-----16---------------------------------|
--------------------------------------------|
--------------------------------------------|
--------------------------------------------|


   Q       E    E    H                                  
--16br-----L--(16)-------------|-------|-------|-------|
--------------------14~--------|-------|-------|-------|
-------------------------------|-------|-------|-------|
-------------------------------|-------|-------|-------|
-------------------------------|-------|-------|-------|
-------------------------------|-------|-------|-------|


              H         E   E   E   E   
-----------|---------------------------|
-----------|---------------------------|
-----------|-----------16--14--13------|
-----------|-----------------------16--|
-----------|---------------------------|
-----------|---------------------------|


                                             ^                 
   Q     E   E   E   Q     E       H         Q      E   E      
--------------------------16b--|---L--------16~-----L---Lpbr--|
--14--------19---L--14---------|------------------------------|
--------14---------------------|------------------------------|
-------------------------------|------------------------------|
-------------------------------|------------------------------|
-------------------------------|------------------------------|


    W                     Q        Q     E   E   E   E   
--(16)~----------------|--------------------------------|
-----------------------|--------------------------------|
-----------------------|-------11g13----13--11--13--14--|
-----------------------|--------------------------------|
-----------------------|--------------------------------|
-----------------------|--------------------------------|


   E   E      E   E    H         
--------------------------------|
------12--12g14-----------------|
---L----------------------------|
-----------------16~---L--------|
--------------------------------|
--------------------------------|


  Q        Q     E   E   E  E      E   E  E   E   E  E     Q     
----------------------------9~--|--L--10--9---------------------|
-------10g12----12--10--12------|------------12--10--9--<>10----|
--------------------------------|-------------------------------|
--------------------------------|-------------------------------|
--------------------------------|-------------------------------|
--------------------------------|-------------------------------|


                      |-----3-----|     
      E   E   E   E   Q     Q     Q     
--12g14--14--14--12--14----12----------|
---------------------------------14----|
---------------------------------------|
---------------------------------------|
---------------------------------------|
---------------------------------------|


      H         Q.         E      Q     E      E   H         
------------------------------|-----------------------------|
--14g17---------L------17g14--|--12----14--14g10---L--------|
------------------------------|-----------------------------|
------------------------------|-----------------------------|
------------------------------|-----------------------------|
------------------------------|-----------------------------|


       |---3---|          |-----3-----|     
   E   S   S   S  E   E   Q     Q     Q     
---------------------16--17----19----21----|
---L--15h-19p-15-19------------------------|
-------------------------------------------|
-------------------------------------------|
-------------------------------------------|
-------------------------------------------|


   S   S  Q.       Q     Q        W                  
--19h-21-19~-------L----------|--------------------||
------------------------22----|--22----------------||
------------------------------|--------------------||
------------------------------|--------------------||
------------------------------|--------------------||
------------------------------|--------------------||




Duration Legend
---------------
W - whole
H - half
Q - quarter
E - 8th
S - 16th
T - 32nd
X - 64th
. - note dotted
|-n-|  - n-tuplets


Tablature Legend
----------------
L - tied note
x - dead note
g - grace note
(n) - ghost note
> - accentuded note
NH - natural harmonic
AH - artificial harmonic
TH - tapped harmonic
SH - semi harmonic
PH - pitch harmonic
h - hammer on
p - pull off
b - bend
br - bendRelease
pb - preBend
pbr - preBendRelease
brb - bendReleaseBend
\n/ - tremolo bar dip
\n - tremolo bar dive
-/n - tremolo bar Release up
/n\ - tremolo bar inverted dip
/n - tremolo bar return
-\n - tremolo bar Release down
S - shift slide
s - legato slide
/ -  slide into from below or out of upwards
\ -  slide into from above or out of downwards
~ - vibrato
W - wide vibrato
tr - trill
TP - tremolo picking
T - tapping
S - slap
P - pop
< - fade in
^ - brush up
v - brush down
Tap to rate this tab
# A B C D E F G H I J K L M N O P Q R S T U V W X Y Z