Song name
# A B C D E F G H I J K L M N O P Q R S T U V W X Y Z

Dragonforce - Strike Of The Ninja tab

I haven't seen the guitar pro version of this song, 
cause i can't access it still, but what i've seen from
the other two tabs, is only chords. so i tried it myself 
and this is what i came up with.

Part 1
E----------------------------------------------|
B----------------------------------------------|
G----------------------------------------------|
D-9-6--9-12-10-9-6--9-10-8--8-8-8-4-6----------|
A----------------------------------------------|
E----------------------------------------------|

Part 2
E--------------|
G--------------|
D--------------|
A-7-9----------|
E-5-7----------|

Part 3
E---------------------------------------------------------------|
B-2-2-2-2-2-2-0-0-2-2-2-2-2-2-0-0-2-2-2-2-2-2-0-0-2-2-2-2-2-2-0-| 
G---------------------------------------------------------------|
D---------------------------------------------------------------|
A---------------------------------------------------------------|
E---------------------------------------------------------------|

E---------------------------------------------------------------|
B-5-5-5-5-5-5-4-4-5-5-5-5-5-5-4-4-5-5-5-5-5-5-4-4-5-5-5-5-5-5-4-|
G---------------------------------------------------------------|
D---------------------------------------------------------------|
A---------------------------------------------------------------|
E---------------------------------------------------------------|

E---------------------------------------------------------------|
B-9-9-9-9-9-9-7-7-9-9-9-9-9-9-7-7-9-9-9-9-9-9-7-7-9-9-9-9-9-9-7-|
G---------------------------------------------------------------|
D---------------------------------------------------------------|
A---------------------------------------------------------------|
E---------------------------------------------------------------|

E---------------------------------------------------------------|
B-14-14-14-14-14-14-12-12-14-14-14-14-14-14-12------------------|
G---------------------------------------------------------------|
D---------------------------------------------------------------|
A---------------------------------------------------------------|
E---------------------------------------------------------------|

Part 4
E---------------------------------------------------------------|
B-14p12h14p12-9p7h9p7-5p4h5p4-2p0h2p0---------------------------|
G---------------------------------------------------------------|
D---------------------------------------------------------------|
A---------------------------------------------------------------|
E---------------------------------------------------------------|


The next part is probably the chords on the other tabs so im 
not gonna put it on.
Tap to rate this tab
# A B C D E F G H I J K L M N O P Q R S T U V W X Y Z