Song name
# A B C D E F G H I J K L M N O P Q R S T U V W X Y Z

Dragonforce - Heart Of A Dragon tab

My first tab on Ultimate-Guitar!

Band: Dragonforce
Song: Heart Of a Dragon
From album: Valley Of the Damned

~ = let ring


Intro:
e|-------------------------------------------|
B|-------------------------------------------|
G|-5~------------5~------------5-----------5-|
D|-5~-----3~-----5~-----5~-----5-5-3-7-3-5-5-|
A|-3~-----3~-----3~-----5~-----3-5-3-7-3-5-3-|
E|--------1~------------3~-------3-1-5-1-3---|

Pre verse:

Guitar 1:
e|----------------------------------------------------------|
B|-------------------13-13-15-13-10-------------------------|
G|-12-12-14-12-9--------------------10--12-12-12-14-12-9-12-|
D|---------------10-----------------------------------------|
A|----------------------------------------------------------|
E|----------------------------------------------------------|

e|---------------------------------------------------10-13-12----|
B|------------------10-12-13-13-12-13-------10-12-13----------13-|
G|-------9-10-9------------------------9-12----------------------|
D|-10-12--------12-----------------------------------------------|
A|---------------------------------------------------------------|
E|---------------------------------------------------------------|

Guitar 2: 2x
e|-------------------------------------------------------------------|   
B|-------------------------------------------------------------------|
G|-------------------------------------------------------------------|
D|-7-------------7----7----7-3-------------3-----3------3-5------5---|
A|-7-------------7----7----7-3-------------3-----3------3-5------5---|
E|-5-55555555555555555555555-1111111111111111111111111111-33333333---|
                                                                     
e|-----------------------------------------|
B|-----------------------------------------|
G|-----------------------------------------|
D|------5-----5-7-------------7----7----7--|
A|------5-----5-7-------------7----7----7--|
E|-333333333333-5-55555555555555555555555--|                                      
 

Verse (only 1 guitar): 2x

e|-------------------------------------------------------------------|   
B|-------------------------------------------------------------------|
G|-------------------------------------------------------------------|
D|-7~------------------------3~---------------------------5~---------|
A|-7~------------------------3~---------------------------5~---------|
E|-5~------------------------1~---------------------------3~---------|
                                                                     
e|-----------------------------------------|
B|-----------------------------------------|
G|-----------------------------------------|
D|--------------7~------------7----7----7--|
A|--------------7~------------7----7----7--|
E|--------------5~------------5----5----5--|

Pre Chorus: 2x (one guitar)

e|-------------------------------------------------------------------|   
B|-------------------------------------------------------------------|
G|-------------------------------------------------------------------|
D|-7-------------7----7----7-3-------------3-----3------3-5------5---|
A|-7-------------7----7----7-3-------------3-----3------3-5------5---|
E|-5-55555555555555555555555-1111111111111111111111111111-33333333---|
                                                                     
e|----------------------- |
B|----------------------- |
G|----------------------- |
D|------5-----5-7-7-55-7- |
A|------5-----5-7-7-55-7- |
E|-333333333333-5-5-33-5- |    

Chorus:

Guitar 1
e|----------------------------------------------------------|
B|-------------------13-13-15-13-10-------------------------|
G|----------------------------------10--12-12-12-14-12-9-12-|
D|----------------------------------------------------------|
A|----------------------------------------------------------|
E|----------------------------------------------------------|

e|---------------------------------------------------10-13-12----|
B|------------------10-12-13-13-12-13-------10-12-13----------13-|
G|-------9-10-9------------------------9-12----------------------|
D|-10-12--------12-----------------------------------------------|
A|---------------------------------------------------------------|
E|---------------------------------------------------------------|


Backing: Guitar 2
e|-------------------------------------------|
B|-------------------------------------------|
G|---------------5~------------5-----------5-|
D|--------3~-----5~-----5~-----5-5-3-7-3-5-5-|
A|--------3~-----3~-----5~-----3-5-3-7-3-5-3-|
E|--------1~------------3~-------3-1-5-1-3---|

Pre verse:

e|---------------------------------------------------10-13-12----|
B|------------------10-12-13-13-12-13-------10-12-13----------13-|
G|-------9-10-9------------------------9-12----------------------|
D|-10-12--------12-----------------------------------------------|
A|---------------------------------------------------------------|
E|---------------------------------------------------------------|

Then verse, pre chorus, and chorus and so on....

This is all i've got right now! hope you enjoyed!

POST COMMENTS AND CORRECTIONS PLEASE!                               
Tap to rate this tab
 
# A B C D E F G H I J K L M N O P Q R S T U V W X Y Z