Song name
# A B C D E F G H I J K L M N O P Q R S T U V W X Y Z

Dragonforce - Revolution Deathsquad tab

                            Revolution Deathsquad -- Dragonforce                              


Tuning: 7 strings standard

( B E A D G B e)
                                                                    
Herman Li | Lead



      PM  PM  PM  PM  PM  PM  PM  PM     PM  PM  PM  PM  PM  PM  PM      
      E   E   E   E   E   E   E   E      E   E   E   E   E   E   E   E   
E||----------------------------------|----------------------------------|
B||----------------------------------|----------------------------------|
G||----------------------------------|------------------------------17--|
D||--15--15--17--17--19--19--15--15--|--17--17--19--19--15--15--19------|
A||----------------------------------|----------------------------------|
E||----------------------------------|----------------------------------|
B||----------------------------------|----------------------------------|


          PM  PM  PM  PM  PM  PM     PM  PM  PM  PM  PM  PM  PM      
  E   E   E   E   E   E   E   E      E   E   E   E   E   E   E   E   
---------------------------------|----------------------------------|
---------------------------------|----------------------------------|
--L--17----------15--15----------|----------------------------------|
---------19--19----------17--17--|--19--19--15--15--17--17------15--|
---------------------------------|--------------------------19------|
---------------------------------|----------------------------------|
---------------------------------|----------------------------------|


          PM  PM  PM  PM  PM  PM     PM  PM  PM  PM  PM  PM  PM      
  E   E   E   E   E   E   E   E      E   E   E   E   E   E   E   E   
---------------------------------|----------------------------------|
---------------------------------|----------------------------------|
---------------------------------|------------------------------19--|
--L--15--17--17--19--19--15--15--|--17--17--19--19--15--15--19------|
---------------------------------|----------------------------------|
---------------------------------|----------------------------------|
---------------------------------|----------------------------------|


      PM  PM  PM  PM  PM  PM                                                    
  E   E   E   E   E   E   E   E     E   E  E   E  H           W                 
---------------------------------|-------------------------|-------------------|
---------------------------------|-------------------------|-------------------|
--L--19--19--19--19--19--19--18--|-----18-----18-----------|-------------------|
---------------------------------|-------------------------|-------------------|
---------------------------------|-------------------------|-------------------|
---------------------------------|-------------------------|-------------------|
---------------------------------|-------------------------|-------------------|


                                               PM  PM                           
    Q.      Q.       Q        Q.      Q.       E   E      Q.      Q.      Q     
--------------------------|---------------------------|------------------------|
--/18------17~------------|---------------------------|--18------20------18----|
--------------------19----|--17---------------17--19--|------------------------|
--------------------------|----------19~--------------|------------------------|
--------------------------|---------------------------|------------------------|
--------------------------|---------------------------|------------------------|
--------------------------|---------------------------|------------------------|


   Q.       Q.      Q         Q.      Q.       Q     
-------------------------|--------------------------|
--20b------20------18----|--/18------17~------------|
-------------------------|--------------------19----|
-------------------------|--------------------------|
-------------------------|--------------------------|
-------------------------|--------------------------|
-------------------------|--------------------------|


                  PM  PM  PM                           
   Q.      Q      E   E   E      Q.      Q.      Q     
-----------------------------|------------------------|
-----------------------------|--18------20------18----|
--17-----------------17--19--|------------------------|
----------19~----19----------|------------------------|
-----------------------------|------------------------|
-----------------------------|------------------------|
-----------------------------|------------------------|


                               -/1     -/1     -/1   
   Q      E   E   H            Q.      Q.      Q     
---------20----------------|------------------------|
--20b--------18b--L--------|--18------17------------|
---------------------------|------------------19----|
---------------------------|------------------------|
---------------------------|------------------------|
---------------------------|------------------------|
---------------------------|------------------------|


   -/1              PM  PM                             
   Q.      Q.       E   E      Q.      Q.      E   E   
---------------------------|--------------------------|
---------------------------|--18------20------18--20--|
--17---------------17--19--|--------------------------|
----------19~--------------|--------------------------|
---------------------------|--------------------------|
---------------------------|--------------------------|
---------------------------|--------------------------|


   E   E   E   E   E   E   E    E         Q.      Q.      Q     
--22--20------20-------------------|---------------------------|
----------22------22--18--20s--22--|--20g18------17------------|
-----------------------------------|---------------------19----|
-----------------------------------|---------------------------|
-----------------------------------|---------------------------|
-----------------------------------|---------------------------|
-----------------------------------|---------------------------|


                       PM  PM  PM                                       
   E  E    E   E   E   E   E   E      E   E   E    E   E   E    E   E   
----------------------------------|------------------------------------|
----------------------------------|--18------18s--20--20--20br--L--18--|
--17--Ls--19----------17--19--17--|------17----------------------------|
--------------19~--L--------------|------------------------------------|
----------------------------------|------------------------------------|
----------------------------------|------------------------------------|
----------------------------------|------------------------------------|


   S   S   S   S   S   S  S   S   S   S   S   S  S   S   S   S  
--20p-17h-20p-17h-20p-17-15h-17p-15h-17p-15h-17-13h-15p-13h-15-|
---------------------------------------------------------------|
---------------------------------------------------------------|
---------------------------------------------------------------|
---------------------------------------------------------------|
---------------------------------------------------------------|
---------------------------------------------------------------|


     -/4                 
     Q    H.             
------------------------|
--<>13----L~------------|
------------------------|
------------------------|
------------------------|
------------------------|
------------------------|


            T       T      T       T      T       T      T       T      
  H         T   T   T   T  T   T   T   T  T   T   T   T  T   T   T   T  
-----------------------------------------15p-12h-15p-12-19p-15h-19p-15-|
--------------------------17p-12h-17p-12-------------------------------|
-----------16p-12h-16p-12----------------------------------------------|
-----------------------------------------------------------------------|
-----------------------------------------------------------------------|
-----------------------------------------------------------------------|
-----------------------------------------------------------------------|


     -/4      W     tr             -/4      W     tr        
     H        Q     Q              H        Q     Q         
-----------------------------|-------------------18(22)----|
--<>11--------L----11(15)----|--<>11--------L--------------|
-----------------------------|-----------------------------|
-----------------------------|-----------------------------|
-----------------------------|-----------------------------|
-----------------------------|-----------------------------|
-----------------------------|-----------------------------|


                                                        -/1  W             
   S  S  S  S  S  S  S  S  S  S  S  S  S  S  S  S       Q    H.            
--------------------------10----------------------|-----------------------|
--13-10-------------10-13----13-10-------10-------|-----------------------|
--------12-10----10----------------10-12----12-10-|--<>14----L------------|
--------------12----------------------------------|-----------------------|
--------------------------------------------------|-----------------------|
--------------------------------------------------|-----------------------|
--------------------------------------------------|-----------------------|


     PM PM PM PM PM PM PM PM PM PM PM PM PM PM    PM            PM PM PM  
  E  S  S  S  S  S  S  S  S  S  S  S  S  S  S     E  Q    E  E  E  E  E   
-----------------------------------------------|-------------------------|
-----------------------------------------------|-------------------------|
--7--------------------------------------------|-----7----7--7-----------|
--7--------------------------------------------|--7--7----5--7--5--3--5--|
--5--5--5--5--5--5--5--5--5--5--5--5--5--5--5--|--5--5----5--5--3--1--3--|
-----------------------------------------------|-------------------------|
-----------------------------------------------|-------------------------|


     PM PM PM PM PM PM PM PM PM PM PM PM PM PM    PM             PM   SH    
  E  S  S  S  S  S  S  S  S  S  S  S  S  S  S     E  Q    E   E  E    Q     
-----------------------------------------------|---------------------------|
-----------------------------------------------|---------------------------|
--7--------------------------------------------|-----7----5s--7------------|
--7--------------------------------------------|--7--7----5s--7-----<>7----|
--5--5--5--5--5--5--5--5--5--5--5--5--5--5--5--|--5--5----3s--5--8---------|
-----------------------------------------------|---------------------------|
-----------------------------------------------|---------------------------|


                      PM              PM PM PM                      
  W                   E  E   E  E  E  E  E  E     W                 
-------------------|---------------------------|-------------------|
-------------------|---------------------------|-------------------|
--5----------------|-----5s--3--5--7-----------|--3----------------|
--5----------------|--5--x------x--7--5--3--5--|--3----------------|
--3----------------|--3--3s--1--3--5--3--1--3--|--1----------------|
-------------------|---------------------------|-------------------|
-------------------|---------------------------|-------------------|


                         PM PM PM PM PM PM PM PM PM PM PM PM PM PM  
  W                   E  S  S  S  S  S  S  S  S  S  S  S  S  S  S   
-------------------|-----------------------------------------------|
-------------------|-----------------------------------------------|
--5----------------|--7--------------------------------------------|
--5----------------|--7--------------------------------------------|
--3----------------|--5--5--5--5--5--5--5--5--5--5--5--5--5--5--5--|
-------------------|-----------------------------------------------|
-------------------|-----------------------------------------------|


  PM              PM PM PM       PM PM PM PM PM PM PM PM PM PM PM PM PM PM  
  E  Q    E   E   E  E  E     E  S  S  S  S  S  S  S  S  S  S  S  S  S  S   
---------------------------|-----------------------------------------------|
---------------------------|-----------------------------------------------|
-----7----5s--7------------|--7--------------------------------------------|
--7--7----5s--7--10--7--5--|--7--------------------------------------------|
--5--5----3s--5---8--5--3--|--5--5--5--5--5--5--5--5--5--5--5--5--5--5--5--|
---------------------------|-----------------------------------------------|
---------------------------|-----------------------------------------------|


  PM PM PM PM   SH PM     PM PM PM                      
  S  S  S  S    E  E   E  E  E  E     W                 
-----------------------------------|-------------------|
-----------------------------------|-------------------|
----------------------10-----------|--5----------------|
--------------<>7-----10--9--7--5--|--5----------------|
--8--8--8--8-------8---8--7--5--3--|--3----------------|
-----------------------------------|-------------------|
-----------------------------------|-------------------|


  PM                  PM PM    PM PM PM PM PM PM PM PM PM PM PM PM PM PM PM  
  E  E   E  E   E  E  E  E     S  S  S  S  S  S  S  S  S  S  S  S  S  S  E   
----------------------------|-----------------------------------------------|
----------------------------|-----------------------------------------------|
-----5s--7--5s--7--5--------|--3--3--3--3--5--5--3--3--7--7--3--3--5--5--3--|
--5--x------x------x-----5--|-----------------------------------------------|
--3--3s--5--3s--5--3--0--3--|-----------------------------------------------|
----------------------------|-----------------------------------------------|
----------------------------|-----------------------------------------------|


  PM PM PM PM PM PM PM PM PM   PH             PM PM PM PM PM PM  
  S  S  E  S  S  E  S  S  E    Q       Q.     S  S  E  E  E  E   
------------------------------------|---------------------------|
------------------------------------|---------------------------|
------------------------------------|--3------------------------|
-----------------------------<>2----|--3------------3--3--3--3--|
--3--3--3--3--3--3--3--3--3---------|--1------1--1--1--1--0--1--|
------------------------------------|---------------------------|
------------------------------------|---------------------------|


       PM PM              
  Q    E  E  E   E  Q     
-------------------------|
-------------------------|
--5----------5------5----|
--5----5--5--3h--5--5----|
--3----3--3--3------3----|
-------------------------|
-------------------------|


   T             T      T             T      T          
   S   S  S   S  S   S  S   S  S   S  S   S  S   S  E   
-------------------------------------------------------|
-------------------------------------------------------|
-------------------------------------------------------|
-------------------------------------------------------|
--15p-12p-8h-12-15p-12-13p-12p-8h-12-15p-12-13p-12p-8--|
-------------------------------------------------------|
-------------------------------------------------------|


   T           T     T           T     T         
   S  S  S  S  S  S  S  S  S  S  S  S  S  S  E   
------------------------------------------------|
------------------------------------------------|
------------------------------------------------|
------------------------------------------------|
--12p-8p-5h-8-12p-8-10p-8p-5h-8-12p-8-10p-8p-5--|
------------------------------------------------|
------------------------------------------------|


  PM PM PM PM PM PM PM PM PM PM PM PM PM PM  
  E  S  S  S  S  S  S  E  S  S  S  S  S  S   
--------------------------------------------|
--------------------------------------------|
--------------------------------------------|
--5--------------------5--------------------|
--3--3--3--3--3--3--3--3--3--3--3--3--3--3--|
--------------------------------------------|
--------------------------------------------|


  PM PM PM PM PM PM PM PM PM PM PM PM PM PM                      
  E  S  S  S  S  S  S  E  S  S  S  S  S  S     W                 
--------------------------------------------|-------------------|
--------------------------------------------|-------------------|
--------------------------------------------|-------------------|
--5--------------------5--------------------|--3----------------|
--3--3--3--3--3--3--3--3--3--3--3--3--3--3--|--3----------------|
--------------------------------------------|--1----------------|
--------------------------------------------|-------------------|


                                   PM PM                PM PM PM  
  W                   H.           E  E     H        E  E  E  E   
-------------------|---------------------|-----------------------|
-------------------|---------------------|-----------------------|
-------------------|--3------------------|--5--------L-----------|
--L----------------|--3------------3--3--|--5--------L--5--7--5--|
--L----------------|--1------------0--1--|--3--------L--3--5--3--|
--L----------------|---------------------|-----------------------|
-------------------|---------------------|-----------------------|


  E  E  E  Q    E  E  E     W                 
-------------------------|-------------------|
-------------------------|-------------------|
--7-----7-------5-----3--|--L----------------|
--7-----7-------5-----3--|--L----------------|
--5-----5-------3-----1--|--L----------------|
--------5----------------|-------------------|
-------------------------|-------------------|


     PM PM PM PM PM PM PM PM PM PM PM PM PM PM  
  E  S  S  S  S  S  S  S  S  S  S  S  S  S  S   
-----------------------------------------------|
-----------------------------------------------|
-----------------------------------------------|
--5--------------------------------------------|
--5--------------------------------------------|
--3--3--3--3--3--3--3--3--3--3--3--3--3--3--3--|
-----------------------------------------------|


  PM PM PM PM PM PM PM PM PM PM PM PM PM PM PM PM  
  S  S  S  S  S  S  S  S  S  S  S  S  S  S  S  S   
--------------------------------------------------|
--------------------------------------------------|
--------------------------------------------------|
--------------------------------------------------|
--------------------------------------------------|
--3--3--3--3--3--3--3--3--3--3--3--3--3--3--3--3--|
--------------------------------------------------|


      PM PM PM PM            SH    SH    SH    SH 
   E  S  S  E  E   E   E     S     S     S     S  
-------------------------------------------------|
-------------------------------------------------|
-------------------------------------------------|
--10--------------10--12--<>10h-<>12p-<>10h-<>12-|
------8--8--8--8---------------------------------|
-------------------------------------------------|
-------------------------------------------------|


     PM PM PM PM          SH    SH   SH    SH                       
  E  S  S  E  E  E   E    S     S    S     S    E  H.           E   
---------------------------------------------|---------------------|
---------------------------------------------|---------------------|
---------------------------------------------|--2---------------3--|
--8--------------8--10--<>8h-<>10p-<>8h-<>10-|--2---------------3--|
-----7--7--7--7------------------------------|--0---------------1--|
---------------------------------------------|---------------------|
---------------------------------------------|---------------------|


                         PM PM PM PM    PM PM PM PM    PM PM  
  W                   E  S  S  S  S  E  S  S  S  S  E  S  S   
-------------------|-----------------------------------------|
-------------------|-----------------------------------------|
-------------------|--7--------------7--------------7--------|
-------------------|--7--------------7--------------7--------|
-------------------|--5--5--5--5--5--5--5--5--5--5--5--5--5--|
-------------------|-----------------------------------------|
-------------------|-----------------------------------------|


     PM PM PM PM    PM PM PM PM    PM PM                      
  E  S  S  S  S  E  S  S  S  S  E  S  S     W                 
-----------------------------------------|-------------------|
-----------------------------------------|-------------------|
--5--------------5--------------5--------|--3----------------|
--5--------------5--------------5--------|--3----------------|
--3--3--3--3--3--3--3--3--3--3--3--3--3--|--1----------------|
-----------------------------------------|-------------------|
-----------------------------------------|-------------------|


                      PM PM PM PM PM PM PM PM PM PM PM PM PM PM PM PM  
  W                   S  S  S  S  S  S  S  S  S  S  S  S  S  S  S  S   
-------------------|--------------------------------------------------|
-------------------|--------------------------------------------------|
--2----------------|--------------------------------------------------|
--2----------------|--------------------------------------------------|
--0----------------|--5--5--5--5--7--7--5--5--8--8--5--5--7--7--5--5--|
-------------------|--------------------------------------------------|
-------------------|--------------------------------------------------|


                                          PM PM                   PM PM PM  
  E  E  E  E  E  E  E  E     H.           E  E     Q.     E   E   E  E  E   
--------------------------|---------------------|--------------------------|
--------------------------|---------------------|--------------------------|
--5-----5-----5-----5-----|--7------------------|--7------7----------------|
--5-----5-----5-----5-----|--7------------7--7--|--7------7--10--10--7--5--|
--3-----3-----3-----3-----|--5------------5--5--|--5------5---8---8--5--3--|
--------------------------|---------------------|--------------------------|
--------------------------|---------------------|--------------------------|


                      PM PM PM PM PM PM PM PM PM   SH    
  W                   S  S  E  S  S  E  S  S  E    Q     
-------------------|------------------------------------|
-------------------|------------------------------------|
--3----------------|------------------------------------|
--3----------------|-----------------------------<>5----|
--1----------------|--3--3--3--3--3--3--3--3--3---------|
-------------------|------------------------------------|
-------------------|------------------------------------|


     PM PM PM PM PM PM PM PM PM PM PM PM PM PM  
  E  S  S  S  S  S  S  S  S  S  S  S  S  S  S   
-----------------------------------------------|
-----------------------------------------------|
--7--------------------------------------------|
--7--------------------------------------------|
--5--5--5--5--5--5--5--5--5--5--5--5--5--5--5--|
-----------------------------------------------|
-----------------------------------------------|


  PM PM PM PM PM PM PM PM PM PM PM PM PM PM PM PM                      
  S  S  S  S  S  S  S  S  S  S  S  S  S  S  S  S     W                 
--------------------------------------------------|-------------------|
--------------------------------------------------|-------------------|
--------------------------------------------------|--2----------------|
--------------------------------------------------|--2----------------|
--5--5--5--5--5--5--5--5--5--5--5--5--5--5--5--5--|--0----------------|
--------------------------------------------------|-------------------|
--------------------------------------------------|-------------------|


  PM PM PM PM PM PM PM PM PM PM  
  S  S  E  E  E  S  S  E  E  E   
--------------------------------|
--------------------------------|
--------------------------------|
--------3--3--3--------5--3--5--|
--1--1--1--0--1--3--3--3--1--3--|
--------------------------------|
--------------------------------|


     PM PM PM PM PM PM PM PM PM PM PM PM PM PM  
  E  S  S  S  S  S  S  S  S  S  S  S  S  S  S   
-----------------------------------------------|
-----------------------------------------------|
-----------------------------------------------|
--3--------------------------------------------|
--3--------------------------------------------|
--1--1--1--1--1--1--1--1--1--1--1--1--1--1--1--|
-----------------------------------------------|


  PM PM PM PM PM PM PM PM PM PM PM PM PM PM PM PM           PM PM PM PM PM PM  
  S  S  S  S  S  S  S  S  S  S  S  S  S  S  S  S     Q.     S  S  E  E  E  E   
--------------------------------------------------|---------------------------|
--------------------------------------------------|---------------------------|
--------------------------------------------------|--3------------------------|
--------------------------------------------------|--3------------3--3--3--3--|
--------------------------------------------------|--1------1--1--1--1--0--1--|
--1--1--1--1--1--1--1--1--1--1--1--1--1--1--1--1--|---------------------------|
--------------------------------------------------|---------------------------|


                                PM PM PM PM PM PM PM PM PM PM PM PM PM PM  
  Q.     E   E  E   E  E     E  S  S  S  S  S  S  S  S  S  S  S  S  S  S   
--------------------------|-----------------------------------------------|
--------------------------|-----------------------------------------------|
--5------5s--7--5s--7--5--|--2--------------------------------------------|
--5------x------x------x--|--2--------------------------------------------|
--3------3s--5--3s--5--3--|--0--0--0--0--0--0--0--0--0--0--0--0--0--0--0--|
--------------------------|-----------------------------------------------|
--------------------------|-----------------------------------------------|


     PM PM PM PM PM PM PM PM PM PM PM PM PM PM                        
  E  S  S  S  S  S  S  S  S  S  S  S  S  S  S     E  Q.     H         
-----------------------------------------------|---------------------|
-----------------------------------------------|---------------------|
--3--------------------------------------------|--5------------------|
--3--------------------------------------------|--5------------------|
--1--1--1--1--1--1--1--1--1--1--1--1--1--1--1--|--3------------------|
-----------------------------------------------|---------------------|
-----------------------------------------------|---------------------|


  W                   S  S S  S S  S  S S S  S S  S S  S  S S  
-------------------|------------5h-6p-5-------------5h-6p-5---|
-------------------|--6p-5-6h-8---------8-6p-5-6h-8---------8-|
-------------------|------------------------------------------|
-------------------|------------------------------------------|
-------------------|------------------------------------------|
-------------------|------------------------------------------|
-------------------|------------------------------------------|


                         SH             
  S  S S  S S  S  S S    E  E  S  S E   
------------5h-6p-5---/<>8--8--6p-5----|
--6p-5-6h-8---------8---------------6--|
---------------------------------------|
---------------------------------------|
---------------------------------------|
---------------------------------------|
---------------------------------------|


  S  S S  S S  S  S S S  S S  S S  S  S S  
------------5h-6p-5-------------5h-6p-5---|
--6p-5-6h-8---------8-6p-5-6h-8---------8-|
------------------------------------------|
------------------------------------------|
------------------------------------------|
------------------------------------------|
------------------------------------------|


                                   SH      PM PM          PM PM           
   S  S  S S S   S S  S S  S  E    Q       E  E  S   S E  E  E  S   S E   
-----------6-8h-10-8p-6-8p-6------------|--------------------------------|
--10p-8-10-------------------10--<>8----|--6--6--8h-10-8--6--6--8h-10-8--|
----------------------------------------|--------------------------------|
----------------------------------------|--------------------------------|
----------------------------------------|--------------------------------|
----------------------------------------|--------------------------------|
----------------------------------------|--------------------------------|


  PM PM          PM PM  PM PMPM PM  PM PM                                    
  E  E  S   S E  S  S   S  S S  S   S  S     Q     E   S   S E   E   E   E   
-----------------------------6--6--------|--17----20--20s-22-L--20--17------|
--6--6--8h-10-8--8--8--10-10-------10-10-|------------------------------18--|
-----------------------------------------|----------------------------------|
-----------------------------------------|----------------------------------|
-----------------------------------------|----------------------------------|
-----------------------------------------|----------------------------------|
-----------------------------------------|----------------------------------|


   E  E   E   E  E   S   S  E   E        H.            Q     
-----------------------------------|------------------------|
--20-----18--20-----20s-22-20--18--|------------------------|
-----------------------------------|--<>19~-----------------|
-----------------------------------|------------------------|
-----------------------------------|------------------------|
-----------------------------------|------------------------|
-----------------------------------|------------------------|


      PM PM PM PM  PM           \1                
  E   E  E  E  E   E  Q         W                 
---------------------------|---------------------|
----------------------8----|---------------------|
-----10--9--7--9--10-------|---------------------|
---------------------------|---------------------|
---------------------------|--<>5----------------|
---------------------------|---------------------|
---------------------------|---------------------|


     PM PM PM PM PM PM PM PM PM PM PM PM PM PM    PM            PM PM PM  
  E  S  S  S  S  S  S  S  S  S  S  S  S  S  S     E  Q    E  E  E  E  E   
-----------------------------------------------|-------------------------|
-----------------------------------------------|-------------------------|
--7--------------------------------------------|-----7----7--7-----------|
--7--------------------------------------------|--7--7----5--7--5--3--5--|
--5--5--5--5--5--5--5--5--5--5--5--5--5--5--5--|--5--5----5--5--3--1--3--|
-----------------------------------------------|-------------------------|
-----------------------------------------------|-------------------------|


     PM PM PM PM PM PM PM PM PM PM PM PM PM PM    PM             PM   SH    
  E  S  S  S  S  S  S  S  S  S  S  S  S  S  S     E  Q    E   E  E    Q     
-----------------------------------------------|---------------------------|
-----------------------------------------------|---------------------------|
--7--------------------------------------------|-----7----5s--7------------|
--7--------------------------------------------|--7--7----5s--7-----<>7----|
--5--5--5--5--5--5--5--5--5--5--5--5--5--5--5--|--5--5----3s--5--8---------|
-----------------------------------------------|---------------------------|
-----------------------------------------------|---------------------------|


                      PM              PM PM PM                      
  W                   E  E   E  E  E  E  E  E     W                 
-------------------|---------------------------|-------------------|
-------------------|---------------------------|-------------------|
--5----------------|-----5s--3--5--7-----------|--3----------------|
--5----------------|--5--x------x--7--5--3--5--|--3----------------|
--3----------------|--3--3s--1--3--5--3--1--3--|--1----------------|
-------------------|---------------------------|-------------------|
-------------------|---------------------------|-------------------|


                         PM PM PM PM PM PM PM PM PM PM PM PM PM PM  
  W                   E  S  S  S  S  S  S  S  S  S  S  S  S  S  S   
-------------------|-----------------------------------------------|
-------------------|-----------------------------------------------|
--5----------------|--7--------------------------------------------|
--5----------------|--7--------------------------------------------|
--3----------------|--5--5--5--5--5--5--5--5--5--5--5--5--5--5--5--|
-------------------|-----------------------------------------------|
-------------------|-----------------------------------------------|


  PM              PM PM PM       PM PM PM PM PM PM PM PM PM PM PM PM PM PM  
  E  Q    E   E   E  E  E     E  S  S  S  S  S  S  S  S  S  S  S  S  S  S   
---------------------------|-----------------------------------------------|
---------------------------|-----------------------------------------------|
-----7----5s--7------------|--7--------------------------------------------|
--7--7----5s--7--10--7--5--|--7--------------------------------------------|
--5--5----3s--5---8--5--3--|--5--5--5--5--5--5--5--5--5--5--5--5--5--5--5--|
---------------------------|-----------------------------------------------|
---------------------------|-----------------------------------------------|


  PM PM PM PM   SH PM     PM PM PM                      
  S  S  S  S    E  E   E  E  E  E     W                 
-----------------------------------|-------------------|
-----------------------------------|-------------------|
----------------------10-----------|--5----------------|
--------------<>7-----10--9--7--5--|--5----------------|
--8--8--8--8-------8---8--7--5--3--|--3----------------|
-----------------------------------|-------------------|
-----------------------------------|-------------------|


  PM                  PM PM    PM PM PM PM PM PM PM PM PM PM PM PM PM PM PM  
  E  E   E  E   E  E  E  E     S  S  S  S  S  S  S  S  S  S  S  S  S  S  E   
----------------------------|-----------------------------------------------|
----------------------------|-----------------------------------------------|
-----5s--7--5s--7--5--------|--3--3--3--3--5--5--3--3--7--7--3--3--5--5--3--|
--5--x------x------x-----5--|-----------------------------------------------|
--3--3s--5--3s--5--3--0--3--|-----------------------------------------------|
----------------------------|-----------------------------------------------|
----------------------------|-----------------------------------------------|


  PM PM PM PM PM PM PM PM PM   PH             PM PM PM PM PM PM  
  S  S  E  S  S  E  S  S  E    Q       Q.     S  S  E  E  E  E   
------------------------------------|---------------------------|
------------------------------------|---------------------------|
------------------------------------|--3------------------------|
-----------------------------<>2----|--3------------3--3--3--3--|
--3--3--3--3--3--3--3--3--3---------|--1------1--1--1--1--0--1--|
------------------------------------|---------------------------|
------------------------------------|---------------------------|


       PM PM                     T     T    T     T     T    T     T     
  Q    E  E  E   E  Q       S  S S  S  S  S S  S  S  S  S  S S  S  S  S  
-------------------------|----------------------------------------------|
-------------------------|----------------------------------------------|
--5----------5------5----|----------------------------------------------|
--5----5--5--3h--5--5----|--3h-7-8p-7-10p-7-8p-7-12p-7-10p-7-8p-7-10p-7-|
--3----3--3--3------3----|----------------------------------------------|
-------------------------|----------------------------------------------|
-------------------------|----------------------------------------------|


                      PM PM PM PM PM PM   PH  
  S  S S  S S  S S  S S  S  S  S  S  S    E   
---------------------------------------------|
---------------------------------------------|
---------------------------------------------|
--0h-3-5p-3-7p-3-5p-3-8--3--7--3--5--3--<>7--|
---------------------------------------------|
---------------------------------------------|
---------------------------------------------|


  PM PM PM PM PM PM PM PM PM PM PM PM PM PM  
  E  S  S  S  S  S  S  E  S  S  S  S  S  S   
--------------------------------------------|
--------------------------------------------|
--------------------------------------------|
--5--------------------5--------------------|
--3--3--3--3--3--3--3--3--3--3--3--3--3--3--|
--------------------------------------------|
--------------------------------------------|


  PM PM PM PM PM PM PM PM PM PM PM PM PM PM                      
  E  S  S  S  S  S  S  E  S  S  S  S  S  S     W                 
--------------------------------------------|-------------------|
--------------------------------------------|-------------------|
--------------------------------------------|-------------------|
--5--------------------5--------------------|--3----------------|
--3--3--3--3--3--3--3--3--3--3--3--3--3--3--|--3----------------|
--------------------------------------------|--1----------------|
--------------------------------------------|-------------------|


                                   PM PM                PM PM PM  
  W                   H.           E  E     H        E  E  E  E   
-------------------|---------------------|-----------------------|
-------------------|---------------------|-----------------------|
-------------------|--3------------------|--5--------L-----------|
--L----------------|--3------------3--3--|--5--------L--5--7--5--|
--L----------------|--1------------0--1--|--3--------L--3--5--3--|
--L----------------|---------------------|-----------------------|
-------------------|---------------------|-----------------------|


  E  E  E  Q    E  E  E     W                 
-------------------------|-------------------|
-------------------------|-------------------|
--7-----7-------5-----3--|--L----------------|
--7-----7-------5-----3--|--L----------------|
--5-----5-------3-----1--|--L----------------|
--------5----------------|-------------------|
-------------------------|-------------------|


     PM PM PM PM PM PM PM PM PM PM PM PM PM PM  
  E  S  S  S  S  S  S  S  S  S  S  S  S  S  S   
-----------------------------------------------|
-----------------------------------------------|
-----------------------------------------------|
--5--------------------------------------------|
--5--------------------------------------------|
--3--3--3--3--3--3--3--3--3--3--3--3--3--3--3--|
-----------------------------------------------|


  PM PM PM PM PM PM PM PM PM PM PM PM PM PM PM PM  
  S  S  S  S  S  S  S  S  S  S  S  S  S  S  S  S   
--------------------------------------------------|
--------------------------------------------------|
--------------------------------------------------|
--------------------------------------------------|
--------------------------------------------------|
--3--3--3--3--3--3--3--3--3--3--3--3--3--3--3--3--|
--------------------------------------------------|


      PM PM PM PM            SH    SH    SH    SH 
   E  S  S  E  E   E   E     S     S     S     S  
-------------------------------------------------|
-------------------------------------------------|
-------------------------------------------------|
--10--------------10--12--<>10h-<>12p-<>10h-<>12-|
------8--8--8--8---------------------------------|
-------------------------------------------------|
-------------------------------------------------|


     PM PM PM PM          SH    SH   SH    SH                       
  E  S  S  E  E  E   E    S     S    S     S    E  H.           E   
---------------------------------------------|---------------------|
---------------------------------------------|---------------------|
---------------------------------------------|--2---------------3--|
--8--------------8--10--<>8h-<>10p-<>8h-<>10-|--2---------------3--|
-----7--7--7--7------------------------------|--0---------------1--|
---------------------------------------------|---------------------|
---------------------------------------------|---------------------|


                         PM PM PM PM    PM PM PM PM    PM PM  
  W                   E  S  S  S  S  E  S  S  S  S  E  S  S   
-------------------|-----------------------------------------|
-------------------|-----------------------------------------|
-------------------|--7--------------7--------------7--------|
-------------------|--7--------------7--------------7--------|
-------------------|--5--5--5--5--5--5--5--5--5--5--5--5--5--|
-------------------|-----------------------------------------|
-------------------|-----------------------------------------|


     PM PM PM PM    PM PM PM PM    PM PM                      
  E  S  S  S  S  E  S  S  S  S  E  S  S     W                 
-----------------------------------------|-------------------|
-----------------------------------------|-------------------|
--5--------------5--------------5--------|--3----------------|
--5--------------5--------------5--------|--3----------------|
--3--3--3--3--3--3--3--3--3--3--3--3--3--|--1----------------|
-----------------------------------------|-------------------|
-----------------------------------------|-------------------|


  W                   E  Q.     H           W                 
-------------------|---------------------|-------------------|
-------------------|---------------------|-------------------|
--2----------------|--3------------------|-------------------|
--2----------------|--3------------------|-------------------|
--0----------------|--1------------------|-------------------|
-------------------|---------------------|-------------------|
-------------------|---------------------|-------------------|


               PM PM                   PM PM PM                      
  H.           E  E     Q.     E   E   E  E  E     W                 
---------------------|--------------------------|-------------------|
---------------------|--------------------------|-------------------|
--7------------------|--7------7----------------|--3----------------|
--7------------7--7--|--7------7--10--10--7--5--|--3----------------|
--5------------5--5--|--5------5---8---8--5--3--|--1----------------|
---------------------|--------------------------|-------------------|
---------------------|--------------------------|-------------------|


  PM PM PM PM PM PM PM PM PM   SH    
  S  S  E  S  S  E  S  S  E    Q     
------------------------------------|
------------------------------------|
------------------------------------|
-----------------------------<>5----|
--3--3--3--3--3--3--3--3--3---------|
------------------------------------|
------------------------------------|


     PM PM PM PM PM PM PM PM PM PM PM PM PM PM  
  E  S  S  S  S  S  S  S  S  S  S  S  S  S  S   
-----------------------------------------------|
-----------------------------------------------|
--7--------------------------------------------|
--7--------------------------------------------|
--5--5--5--5--5--5--5--5--5--5--5--5--5--5--5--|
-----------------------------------------------|
-----------------------------------------------|


  PM PM PM PM PM PM PM PM PM PM PM PM PM PM PM PM                      
  S  S  S  S  S  S  S  S  S  S  S  S  S  S  S  S     W                 
--------------------------------------------------|-------------------|
--------------------------------------------------|-------------------|
--------------------------------------------------|--2----------------|
--------------------------------------------------|--2----------------|
--5--5--5--5--5--5--5--5--5--5--5--5--5--5--5--5--|--0----------------|
--------------------------------------------------|-------------------|
--------------------------------------------------|-------------------|


  PM PM PM PM PM PM PM PM PM PM  
  S  S  E  E  E  S  S  E  E  E   
--------------------------------|
--------------------------------|
--------------------------------|
--------3--3--3--------5--3--5--|
--1--1--1--0--1--3--3--3--1--3--|
--------------------------------|
--------------------------------|


     PM PM PM PM PM PM PM PM PM PM PM PM PM PM  
  E  S  S  S  S  S  S  S  S  S  S  S  S  S  S   
-----------------------------------------------|
-----------------------------------------------|
-----------------------------------------------|
--3--------------------------------------------|
--3--------------------------------------------|
--1--1--1--1--1--1--1--1--1--1--1--1--1--1--1--|
-----------------------------------------------|


  PM PM PM PM PM PM PM PM PM PM PM PM PM PM PM PM           PM PM PM PM PM PM  
  S  S  S  S  S  S  S  S  S  S  S  S  S  S  S  S     Q.     S  S  E  E  E  E   
--------------------------------------------------|---------------------------|
--------------------------------------------------|---------------------------|
--------------------------------------------------|--3------------------------|
--------------------------------------------------|--3------------3--3--3--3--|
--------------------------------------------------|--1------1--1--1--1--0--1--|
--1--1--1--1--1--1--1--1--1--1--1--1--1--1--1--1--|---------------------------|
--------------------------------------------------|---------------------------|


                                PM PM PM PM PM PM PM PM PM PM PM PM PM PM  
  Q.     E   E  E   E  E     E  S  S  S  S  S  S  S  S  S  S  S  S  S  S   
--------------------------|-----------------------------------------------|
--------------------------|-----------------------------------------------|
--5------5s--7--5s--7--5--|--2--------------------------------------------|
--5------x------x------x--|--2--------------------------------------------|
--3------3s--5--3s--5--3--|--0--0--0--0--0--0--0--0--0--0--0--0--0--0--0--|
--------------------------|-----------------------------------------------|
--------------------------|-----------------------------------------------|


     PM PM PM PM PM PM PM PM PM PM PM PM PM PM                        
  E  S  S  S  S  S  S  S  S  S  S  S  S  S  S     E  Q.     H         
-----------------------------------------------|---------------------|
-----------------------------------------------|---------------------|
--3--------------------------------------------|--5------------------|
--3--------------------------------------------|--5------------------|
--1--1--1--1--1--1--1--1--1--1--1--1--1--1--1--|--3------------------|
-----------------------------------------------|---------------------|
-----------------------------------------------|---------------------|


  W                   S  S S  S S  S  S S S  S S  S S  S  S S  
-------------------|------------5h-6p-5-------------5h-6p-5---|
-------------------|--6p-5-6h-8---------8-6p-5-6h-8---------8-|
-------------------|------------------------------------------|
-------------------|------------------------------------------|
-------------------|------------------------------------------|
-------------------|------------------------------------------|
-------------------|------------------------------------------|


                      PM PM PM PM PM PM PM PM  
  S  S S  S S  S  S S S  S  S  S  S  S  S  S   
------------5h-6p-5---5--5--6--6--8--8--5--5--|
--6p-5-6h-8---------8-------------------------|
----------------------------------------------|
----------------------------------------------|
----------------------------------------------|
----------------------------------------------|
----------------------------------------------|


  S  S S  S S  S  S S S  S S  S S  S  S S  
------------5h-6p-5-------------5h-6p-5---|
--6p-5-6h-8---------8-6p-5-6h-8---------8-|
------------------------------------------|
------------------------------------------|
------------------------------------------|
------------------------------------------|
------------------------------------------|


                                SH      PM PM          PM PM           
   S  S  S S S   S S  S E  E    Q       E  E  S   S E  E  E  S   S E   
-----------6-8h-10-8p-6-8--5--<>6----|--------------------------------|
--10p-8-10---------------------------|--6--6--8h-10-8--6--6--8h-10-8--|
-------------------------------------|--------------------------------|
-------------------------------------|--------------------------------|
-------------------------------------|--------------------------------|
-------------------------------------|--------------------------------|
-------------------------------------|--------------------------------|


  PM PM          PM PM  PM PMPM PM  PM PM                                    
  E  E  S   S E  S  S   S  S S  S   S  S     Q     E   S   S E   E   E   E   
-----------------------------6--6--------|--17----20--20s-22-L--20--17------|
--6--6--8h-10-8--8--8--10-10-------10-10-|------------------------------18--|
-----------------------------------------|----------------------------------|
-----------------------------------------|----------------------------------|
-----------------------------------------|----------------------------------|
-----------------------------------------|----------------------------------|
-----------------------------------------|----------------------------------|


   E  E   E   E  E   S   S  E   E        H.            Q     
-----------------------------------|------------------------|
--20-----18--20-----20s-22-20--18--|------------------------|
-----------------------------------|--<>19~-----------------|
-----------------------------------|------------------------|
-----------------------------------|------------------------|
-----------------------------------|------------------------|
-----------------------------------|------------------------|


      PM PM PM PM  PM           -/1                
  E   E  E  E  E   E  Q         W                  
---------------------------|----------------------|
----------------------8----|----------------------|
-----10--9--7--9--10-------|----------------------|
---------------------------|--<>5~----------------|
---------------------------|----------------------|
---------------------------|----------------------|
---------------------------|----------------------|


   T       T      T       T      T       T      T       T      
   S   S   S   S  S   S   S   S  S   S   S   S  S   S   S   S  
--17p-13h-17p-13-17p-12h-17p-12-17p-13h-17p-13-17p-15h-17p-15-|
--------------------------------------------------------------|
--------------------------------------------------------------|
--------------------------------------------------------------|
--------------------------------------------------------------|
--------------------------------------------------------------|
--------------------------------------------------------------|


   T              T      T              T      T              
   S   S   S   S  S   S  S   S   S   S  S   S  S   S   S   S  
-------------------------------------------------------------|
--17p-13p-10h-13-17p-13-16p-13p-10h-13-17p-13-16p-13p-10h-13-|
-------------------------------------------------------------|
-------------------------------------------------------------|
-------------------------------------------------------------|
-------------------------------------------------------------|
-------------------------------------------------------------|


    TP          NH              PM PM   PM    PM         PM PM   PM    PM       
    H           Q     Q         E  Q    E  E  E  Q       E  Q    E  E  E  Q     
----------------------------||------------------------|------------------------|
----------------------------||------------------------|------------------------|
--<>2S--------<>7-----------||------------------------|------------------------|
---------------------12\----||------------------------|------------------------|
----------------------------||------------------------|------------------------|
----------------------------||--5--5----5--L--5-------|--5--5----5--L--5-------|
----------------------------||--3--3----3--L--3-------|--3--3----3--L--3-------|


                                             PM PM PM PM    PM       
  H        Q.      E     W                   E  E  E  E  E  E  Q     
----------------------|-------------------|-------------------------|
----------------------|-------------------|-------------------------|
----------------------|-------------------|-------------------------|
--8--------L------10--|--L----------------|-------------------------|
--8--------L------10--|--L----------------|-------------------------|
--6--------L-------8--|--L----------------|--5--5--5--5--L--5-------|
--6--------L-------8--|--L----------------|--3--3--3--3--L--3-------|


  PM PM   PM    PM                                                      
  E  Q    E  E  E  Q       H        Q.     E     Q.      E  H           
------------------------|---------------------|-----------------------||
------------------------|---------------------|-----------------------||
------------------------|---------------------|-----------------------||
------------------------|--7--------L------8--|--L------10--L---------||
------------------------|--7--------L------8--|--L------10--L---------||
--5--5----5--L--5-------|--5--------L------6--|--L-------8--L---------||
--3--3----3--L--3-------|--5--------L------6--|--L-------8--L---------||


   |-----5-----|  |-----5-----|  |-----5-----|  |-----5-----|  
   S  S  S  S  S  S  S  S  S  S  S  S  S  S  S  S  S  S  S  S  
--17-13-17-12-17----17----------------------17----------------|
-----------------15----13-15-17-18-17-18-20----20-18-17-20-18-|
--------------------------------------------------------------|
--------------------------------------------------------------|
--------------------------------------------------------------|
--------------------------------------------------------------|
--------------------------------------------------------------|


                                         \0/      
   |-----5-----|  |-----5-----|  |--3--|          
   S  S  S  S  S  S  S  S  S  S  S  S  S Q.       
-------------------------------------------------|
--17----18-16-15----------------15-17-18-L~------|
-----19----------17-15-14-15-17------------------|
-------------------------------------------------|
-------------------------------------------------|
-------------------------------------------------|
-------------------------------------------------|


   |--6--|  |--6--|  |-----5-----|  |-----5-----|  |-----5-----|  
   S  S  S  S  S  S  S  S  S  S  S  S  S  S  S  S  S  S  S  S  S  
-----------17-20-17-22----17----17-------------------------------|
--------18-------------20----18-------18----18----17-------------|
-----17----------------------------19----19----17-------19-15-18-|
--18-------------------------------------------------19----------|
-----------------------------------------------------------------|
-----------------------------------------------------------------|
-----------------------------------------------------------------|


   |--6--|  |--6--|  |-----5-----|  |-----5-----|         
   S  S  S  S  S  S  S  S  S  S  S  S  S  S  S  S  Q      
--------------------------------------------------22\----|
--------------------------------15-------16-15-15--------|
--15-19-------------------14-14----15-17-----------------|
--------19-17-15-19-14-17--------------------------------|
---------------------------------------------------------|
---------------------------------------------------------|
---------------------------------------------------------|


   * Whammy Pedal                                                      
                     /6 /6 /6 /6 -\6    /6 /6 /6 /6 -\6    /6 /6 /6 /6 
   |-----------5-----------|               |------5-----|              
   S              S  S  S  S  S  S   S  S  S  S  S  S   S  S  S  S  S  
-----------------------------17-17--17-17-----------------------------|
--------------------------18--------------18----18--------------------|
-----------------------19--------------------19----19-----19----------|
--------------------19---------------------------------19----19-19----|
--17-------------20------------------------------------------------20-|
----------------------------------------------------------------------|
----------------------------------------------------------------------|


   -\6       /6 /6 -\6       /6 /6 /6 -\6    /6                           
   |------5-----|                                                         
   S   S  S  S  S  S   S  S  S  S  S  S   S  Q        W                   
-------------------------17-17----17-----17-22----|--10s~----------------|
----------------------18-------18----18-----------|----------------------|
---------------19-19------------------------------|----------------------|
------19----19------------------------------------|----------------------|
--20-----17---------------------------------------|----------------------|
--------------------------------------------------|----------------------|
--------------------------------------------------|----------------------|


   H           Q.        E     E   E   E   E   E   E   E   E   
--13~--------/18/~----------|---------------------------------|
----------------------------|---------10--13--11--10------10--|
------------------------10--|--L--10------------------10------|
----------------------------|---------------------------------|
----------------------------|---------------------------------|
----------------------------|---------------------------------|
----------------------------|---------------------------------|


  E   E  E  E  E    E   E    E      E   E   E   E   E    E  E   E   
--------------------------------|------------------12br--L--L------|
--L-----------------------------|--11--10--11--13--------------13--|
-----10--9--7--9s--10s--9s--10--|----------------------------------|
--------------------------------|----------------------------------|
--------------------------------|----------------------------------|
--------------------------------|----------------------------------|
--------------------------------|----------------------------------|


   E   E   E   E  Q.      E     E   E   E   E   E   E   E   E   
-----------------------------|---------------------------------|
--13--11--10-----------------|---------10--13--11--10------10--|
--------------10--L------10--|--L--10------------------10------|
-----------------------------|---------------------------------|
-----------------------------|---------------------------------|
-----------------------------|---------------------------------|
-----------------------------|---------------------------------|


  E   E  E  E  E    E   E   E     E   E  E  E  E   E  E   E   
-------------------------------|-----------------------------|
--L----------------------------|-----------------------------|
-----10--9--7--9s--10s--9------|--9-------------------9------|
---------------------------10--|-----10--8--7--8--10-----10--|
-------------------------------|-----------------------------|
-------------------------------|-----------------------------|
-------------------------------|-----------------------------|


  E    E   E   E    E   E  E    E      E   E   E   E   E   E   E   E   
---------------------------8s--12--|--22--22--20--17--20--17------17--|
--------------10s--11--11----------|--------------------------20------|
--9s--10--10-----------------------|----------------------------------|
-----------------------------------|----------------------------------|
-----------------------------------|----------------------------------|
-----------------------------------|----------------------------------|
-----------------------------------|----------------------------------|


  E   E   E   E   E    E   E    E      E    E    E    E   E    E    E    E    
--L--17----------------------------|---------------------20s--17s--20s--17S--|
---------20--18--20s--22--18s--15--|--20s--18s--20s--18----------------------|
-----------------------------------|-----------------------------------------|
-----------------------------------|-----------------------------------------|
-----------------------------------|-----------------------------------------|
-----------------------------------|-----------------------------------------|
-----------------------------------|-----------------------------------------|


   E   E   E   S   S H            E   E   E   E   E   E   E   E   
--20--17--20--20s-22-L--------|--20--20--18--17--18--17------17--|
------------------------------|--------------------------18------|
------------------------------|----------------------------------|
------------------------------|----------------------------------|
------------------------------|----------------------------------|
------------------------------|----------------------------------|
------------------------------|----------------------------------|


  E   E   E   E   E    E    E    E      E   E   E   E    E  E   E   E   
--L---------------------------------|----------20--24br--L--L--20--24--|
-----18--17------17s--18s--17s--18--|--22--22--------------------------|
-------------17---------------------|----------------------------------|
------------------------------------|----------------------------------|
------------------------------------|----------------------------------|
------------------------------------|----------------------------------|
------------------------------------|----------------------------------|


   S   S   S   S   S   S  S   S   S   S   S   S  S   S   S   S  
---------------------------------------------------------------|
--20h-22p-20h-22p-20h-22-22h-23p-22h-23p-22h-23-23h-25p-23h-25-|
---------------------------------------------------------------|
---------------------------------------------------------------|
---------------------------------------------------------------|
---------------------------------------------------------------|
---------------------------------------------------------------|


       PM PM PM    PM             PM PM PM PM PM PM            PM PM    PM     
  Q    E  E  E  E  E  E     E  E  E  E  E  E  E  E     Q    E  E  E  E  E  E   
-------------------------|--------------------------|-------------------------|
-------------------------|--------------------------|-------------------------|
-------------------------|--------------------------|-------------------------|
----------------------3--|--L--3--------------------|-------------------------|
--3----3--3--3--2--2--3--|--L--3--3--3--3--3--3--3--|--2-------2--2--3--2--3--|
--5----5--5--5--3--3--1--|--L--1--1--1--1--1--1--1--|--3----3--3--3--3--3--5--|
-------------------------|--------------------------|-------------------------|


        PM PM PM PM PM PM         PM PM PM    PM             PM PM PM PM PM PM  
  E  E  E  E  E  E  E  E     Q    E  E  E  E  E  E     E  E  E  E  E  E  E  E   
--------------------------|-------------------------|--------------------------|
--------------------------|-------------------------|--------------------------|
--------------------------|-------------------------|--------------------------|
--------------------------|----------------------3--|--L--3--------------------|
--L--3--3--3--3--3--3--3--|--3----3--3--3--2--2--3--|--L--3--3--3--3--3--3--3--|
--L--5--5--5--5--5--5--5--|--5----5--5--5--3--3--1--|--L--1--1--1--1--1--1--1--|
--------------------------|-------------------------|--------------------------|


                                                          * w/ Slide         
     PM PM    PM PM    PM       PM PM    PM PM    PM      W                  
  E  E  E  E  E  E  E  E     E  E  E  E  E  E  E  E       H        H         
--------------------------|--------------------------|--/12-----------------|
--------------------------|--------------------------|----------------------|
--------------------------|--------------------------|----------------------|
--5--------5--------5-----|--5--------5--------5-----|----------------------|
--5--5--5--5--5--5--5--5--|--5--5--5--5--5--5--5--5--|----------------------|
--3--3--3--3--3--3--3--3--|--3--3--3--3--3--3--3--3--|----------------------|
--------------------------|--------------------------|----------------------|


    W                      W          W             W          W          
    H        H             H          H             H          Q    Q     
--/19-----------------|--/12--------/19--------|--/17--------/12---------|
----------------------|------------------------|-------------------------|
----------------------|------------------------|-------------------------|
----------------------|------------------------|-------------------------|
----------------------|------------------------|-------------------------|
----------------------|------------------------|-------------------------|
----------------------|------------------------|-------------------------|


    W          W             W                    W              W     
    H          H             W                    H.             Q     
------------------------|---------------------|-----------------------|
--/12--------/17--------|--\12----------------|--\7------------/12----|
------------------------|---------------------|-----------------------|
------------------------|---------------------|-----------------------|
------------------------|---------------------|-----------------------|
------------------------|---------------------|-----------------------|
------------------------|---------------------|-----------------------|


        W                                                 
  Q     H        Q        E   E   E   E   E   E   E   E   
----------------------|----------------------------------|
--L----\5-------------|----------10--13--11--10------10--|
----------------------|--10--10------------------10------|
----------------------|----------------------------------|
----------------------|----------------------------------|
----------------------|----------------------------------|
----------------------|----------------------------------|


  E   E  E  E  E    E   E    E      E   E   E   E   E    E  E   E   
--------------------------------|------------------12br--L--L------|
--L-----------------------------|--11--10--11--13--------------13--|
-----10--9--7--9s--10s--9s--10--|----------------------------------|
--------------------------------|----------------------------------|
--------------------------------|----------------------------------|
--------------------------------|----------------------------------|
--------------------------------|----------------------------------|


   E   E   E   E  Q.      E     E   E   E   E   E   E   E   E   
-----------------------------|---------------------------------|
--13--11--10-----------------|---------10--13--11--10------10--|
--------------10--L------10--|--L--10------------------10------|
-----------------------------|---------------------------------|
-----------------------------|---------------------------------|
-----------------------------|---------------------------------|
-----------------------------|---------------------------------|


  E   E  E  E  E    E   E   E     E   E  E  E  E   E  E   E   
-------------------------------|-----------------------------|
--L----------------------------|-----------------------------|
-----10--9--7--9s--10s--9------|--9-------------------9------|
---------------------------10--|-----10--8--7--8--10-----10--|
-------------------------------|-----------------------------|
-------------------------------|-----------------------------|
-------------------------------|-----------------------------|


  E    E   E   E    E   E  E    E      E   E   E   E   E   E   E   E   
---------------------------8s--12--|--22--22--20--17--20--17------17--|
--------------10s--11--11----------|--------------------------20------|
--9s--10--10-----------------------|----------------------------------|
-----------------------------------|----------------------------------|
-----------------------------------|----------------------------------|
-----------------------------------|----------------------------------|
-----------------------------------|----------------------------------|


  E   E   E   E   E    E   E    E      E    E    E    E   E    E    E    E    
--L--17----------------------------|---------------------20s--17s--20s--17S--|
---------20--18--20s--22--18s--15--|--20s--18s--20s--18----------------------|
-----------------------------------|-----------------------------------------|
-----------------------------------|-----------------------------------------|
-----------------------------------|-----------------------------------------|
-----------------------------------|-----------------------------------------|
-----------------------------------|-----------------------------------------|


   E   E   E   S   S H            E   E   E   E   E   E   E   E   
--20--17--20--20s-22-L--------|--20--20--18--17--18--17------17--|
------------------------------|--------------------------18------|
------------------------------|----------------------------------|
------------------------------|----------------------------------|
------------------------------|----------------------------------|
------------------------------|----------------------------------|
------------------------------|----------------------------------|


  E   E   E   E   E    E    E    E      E   E   E   E    E  E   E   E   
--L---------------------------------|----------20--24br--L--L--20--24--|
-----18--17------17s--18s--17s--18--|--22--22--------------------------|
-------------17---------------------|----------------------------------|
------------------------------------|----------------------------------|
------------------------------------|----------------------------------|
------------------------------------|----------------------------------|
------------------------------------|----------------------------------|


   S   S   S   S   S   S  S   S   S   S   S   S  S   S   S   S  
---------------------------------------------------------------|
--20h-22p-20h-22p-20h-22-22h-23p-22h-23p-22h-23-23h-25p-23h-25-|
---------------------------------------------------------------|
---------------------------------------------------------------|
---------------------------------------------------------------|
---------------------------------------------------------------|
---------------------------------------------------------------|


  E  H.           E     W                   E  E  H.            
---------------------|-------------------|---------------------|
---------------------|-------------------|---------------------|
---------------------|-------------------|---------------------|
--2---------------2--|-------------------|--2------------------|
--2---------------2--|-------------------|--2------------------|
--0---------------0--|-------------------|--0------------------|
---------------------|-------------------|---------------------|


                                  PM PM PM PM PM PM PM PM PM PM PM  
    S E    S E    E   H           E  S  S  E  E  S  S  E  E  S  S   
-------------------------------|-----------------------------------|
-------------------------------|-----------------------------------|
-------------------------------|-----------------------------------|
--<>9----<>8----<>7~--L--------|-----------------------------------|
-------------------------------|--2--------2--2--------2--2--------|
-------------------------------|--0--0--0--0--0--0--0--0--0--0--0--|
-------------------------------|-----------------------------------|


  PM PM PM PM PM PM PM PM PM PM PM PM    PM PM PM PM PM PM PM PM PM PM PM  
  S  S  E  S  S  E  S  S  E  S  S  E     E  S  S  E  E  S  S  E  E  S  S   
--------------------------------------|-----------------------------------|
--------------------------------------|-----------------------------------|
--------------------------------------|-----------------------------------|
--------------------------------------|-----------------------------------|
--------2--------2--------2--------2--|--2--------2--2--------2--2--------|
--0--0--0--0--0--0--0--0--0--0--0--0--|--0--0--0--0--0--0--0--0--0--0--0--|
--------------------------------------|-----------------------------------|


                                         PH   PH                   
    S E    S E    E   E   E  E   E       S    S Q    E  E  Q.      
------------------------------------|-----------------------------|
------------------------------------|-----------------------------|
------------------------------------|-------------------4---------|
--<>9----<>8----<>7~--L------7------|--<>7s-<>9---------4---------|
-------------------------10-----10--|-------------------2---------|
------------------------------------|-----------------------------|
------------------------------------|-----------------------------|


   S  S  S  S  S  S  S  S  S  S  S  S  S  S  S  S  
--------------------------------------------------|
-----------12-13-15-13-12-13-13-12-12-13-13-12-12-|
--12----12----------------------------------------|
-----16-------------------------------------------|
--------------------------------------------------|
--------------------------------------------------|
--------------------------------------------------|


   S  S  S  S  S  S  S  S  S  S  S  S  S  S  S  S  
--14----------------------------------------------|
-----15-12----------12-15-15-15-13-13-15-15-13-13-|
-----------12----12-------------------------------|
--------------14----------------------------------|
--------------------------------------------------|
--------------------------------------------------|
--------------------------------------------------|


   S  S  S  S  S  S  S  S  S  S  S  S  S  S  S  S  
--------------------------------------------------|
-----------12-13-15-13-12-13-13-12-12-13-13-12-12-|
--12----12----------------------------------------|
-----16-------------------------------------------|
--------------------------------------------------|
--------------------------------------------------|
--------------------------------------------------|


   S  S  S  S  S  S  S  S  S  S  S  S  S  S  S  S  
--14----14-15-14----------------14-14-------------|
-----15----------15-13-12-15-15-------15-15-13-13-|
--------------------------------------------------|
--------------------------------------------------|
--------------------------------------------------|
--------------------------------------------------|
--------------------------------------------------|


   S  S  S  S  S  S  S  S  S  S  S  S  S  S  S  S  
--24-19-------------------19----19-22-19----------|
--------20----------20-22----22----------22-20----|
-----------21----21----------------------------21-|
--------------21----------------------------------|
--------------------------------------------------|
--------------------------------------------------|
--------------------------------------------------|


   S  S  S  S  S  S  S  S  S  S  S  S  Q     
--24-24-19----19----------19----19-22-------|
-----------20----20----20----22-------22----|
--------------------21----------------------|
--------------------------------------------|
--------------------------------------------|
--------------------------------------------|
--------------------------------------------|


   S  S  S  S  S  S  S  S  S  S  S  S  S  S  S  S  
--24-19-------------------19----19-22-19----------|
--------20----------20-22----22----------22-20----|
-----------21----21----------------------------21-|
--------------21----------------------------------|
--------------------------------------------------|
--------------------------------------------------|
--------------------------------------------------|


   S  S  S  S  S  S  S  S  S  S  S  S  Q     
--19----------------------------------------|
-----22-20-22-20-------------------20-------|
-----------------21-19----------19----21----|
-----------------------21-19-21-------------|
--------------------------------------------|
--------------------------------------------|
--------------------------------------------|


   E   E   S  S  S  S  E   E   S  S  S  S  
------------------------------------------|
--13--13--13----------13--13--13----------|
-------------15-14---------------15-14----|
-------------------15------------------15-|
------------------------------------------|
------------------------------------------|
------------------------------------------|


   E   E   S  S  S  S  S  S  S  S  Q     
----------------------------------------|
--13--13--13-------------------13-------|
-------------15-14----15-14-15----------|
-------------------15-------------15----|
----------------------------------------|
----------------------------------------|
----------------------------------------|


   E   E   S  S  S  S  E   E   S  S  S  S  
------------------------------------------|
--13--13--13----------13--13--13----------|
-------------15-14---------------15-14----|
-------------------15------------------15-|
------------------------------------------|
------------------------------------------|
------------------------------------------|


   S  S  S  S  S  S  S  S  S  S  S  S  S  S  S  S  
--------------------------------------13-18-13-18-|
--------------------------15-16-15-16-------------|
-----14----14-12-15-12-15-------------------------|
--15----15----------------------------------------|
--------------------------------------------------|
--------------------------------------------------|
--------------------------------------------------|


   E   E   S  S  S  S  E   E   S  S  S  S  
------------------------------------------|
--13--13--13----------13--13--13----------|
-------------15-14---------------15-14----|
-------------------15------------------15-|
------------------------------------------|
------------------------------------------|
------------------------------------------|


   E   E   S  S  S  S  S  S  S  S  Q     
----------------------------------------|
--13--13--13-------------------13-------|
-------------15-14----15-14-15----------|
-------------------15-------------15----|
----------------------------------------|
----------------------------------------|
----------------------------------------|


   E   E   S  S  S  S  E   E   S  S  S  S  
------------------------------------------|
--13--13--13----------13--13--13----------|
-------------15-14---------------15-14----|
-------------------15------------------15-|
------------------------------------------|
------------------------------------------|
------------------------------------------|


                                         PH    
   S  S  S  S  S  S  S  S  S  S  S  S    Q     
--------------13-17-13----13----13-17---------|
--13----13-17----------17----17-------<>15----|
-----15---------------------------------------|
----------------------------------------------|
----------------------------------------------|
----------------------------------------------|
----------------------------------------------|


   S  S  S  S  S  S  S  S  S  S  S  S  S  S  S  S  
-----------------19-------------------------------|
-----------20-22----22-20-22-22-20-20-22-22-20-20-|
--21-19-21----------------------------------------|
--------------------------------------------------|
--------------------------------------------------|
--------------------------------------------------|
--------------------------------------------------|


   S  S  S  S  S  S  S  S  S  S  S  S  S  S  S  S  
--22-19----------------19-19-19-------19-19-------|
--------20----------20----------22-22-------22-22-|
-----------21----21-------------------------------|
--------------21----------------------------------|
--------------------------------------------------|
--------------------------------------------------|
--------------------------------------------------|


   S  S  S  S  S  S  S  S  S  S  S  S  S  S  S  S  
-----------------19-------------------------------|
-----------20-22----22-20-22-22-20-20-22-22-20-20-|
--21-19-21----------------------------------------|
--------------------------------------------------|
--------------------------------------------------|
--------------------------------------------------|
--------------------------------------------------|


   S  S  S  S  S  S  S  S  S  S  S  S  S  S  S  S  
--22-19-22-24-22-19-------19-19-22-22-19-19-------|
--------------------22-20-------------------22-22-|
--------------------------------------------------|
--------------------------------------------------|
--------------------------------------------------|
--------------------------------------------------|
--------------------------------------------------|


   S  S  S  S  S  S  S  S  S  S  S  S  S  S  S  S  
--15-12----------------------------15-------------|
--------12----------12-13-15-13-15----15-13-12----|
-----------12----12----------------------------12-|
--------------14----------------------------------|
--------------------------------------------------|
--------------------------------------------------|
--------------------------------------------------|


   S  S  S  S  S  S  S  S  S  S  S  S  Q     
--15-15----------------------------15-------|
--------15-12-15-12----12-15-13-15----15----|
--------------------12----------------------|
--------------------------------------------|
--------------------------------------------|
--------------------------------------------|
--------------------------------------------|


   S  S  S  S  S  S  S  S  S  S  S  S  S  S  S  S  
--15-12----------------------------15-------------|
--------12----------12-13-15-13-15----15-13-12----|
-----------12----12----------------------------12-|
--------------14----------------------------------|
--------------------------------------------------|
--------------------------------------------------|
--------------------------------------------------|


   S  S  S  S  S  S  S  S  S  S  S  S  S  S  S  S  
-----------------------------------------------15-|
--15-13-12-13-12----------------------12-13-15----|
-----------------12-11-------------12-------------|
-----------------------12----12-16----------------|
--------------------------15----------------------|
--------------------------------------------------|
--------------------------------------------------|


      Q    E      Q.      E   E      E   E   E   E  H         
---------------------------------|--10--12--15---------------|
--12g15-------10g13------13--12--|--------------12--L--------|
---------------------------------|---------------------------|
---------------------------------|---------------------------|
---------------------------------|---------------------------|
---------------------------------|---------------------------|
---------------------------------|---------------------------|


                      PM  PM  -/1   -/1   -/1      -/1                  
   |-------5-------|          |-----3-----|                             
   S   S   S   S   S  E   E   Q     Q     Q        H         E  Q.      
--10h-12p-10h-12p-10---------------------------|-----------------------|
---------------------13--12--12----13----15----|--16--------16---------|
-----------------------------------------------|-----------------------|
-----------------------------------------------|-----------------------|
-----------------------------------------------|-----------------------|
-----------------------------------------------|-----------------------|
-----------------------------------------------|-----------------------|


     PM PM PM PM PM PM PM PM PM PM PM PM PM PM    PM            PM PM PM  
  E  S  S  S  S  S  S  S  S  S  S  S  S  S  S     E  Q    E  E  E  E  E   
-----------------------------------------------|-------------------------|
-----------------------------------------------|-------------------------|
--7--------------------------------------------|-----7----7--7-----------|
--7--------------------------------------------|--7--7----5--7--5--3--5--|
--5--5--5--5--5--5--5--5--5--5--5--5--5--5--5--|--5--5----5--5--3--1--3--|
-----------------------------------------------|-------------------------|
-----------------------------------------------|-------------------------|


     PM PM PM PM PM PM PM PM PM PM PM PM PM PM    PM             PM   SH    
  E  S  S  S  S  S  S  S  S  S  S  S  S  S  S     E  Q    E   E  E    Q     
-----------------------------------------------|---------------------------|
-----------------------------------------------|---------------------------|
--7--------------------------------------------|-----7----5s--7------------|
--7--------------------------------------------|--7--7----5s--7-----<>7----|
--5--5--5--5--5--5--5--5--5--5--5--5--5--5--5--|--5--5----3s--5--8---------|
-----------------------------------------------|---------------------------|
-----------------------------------------------|---------------------------|


                      PM              PM PM PM                      
  W                   E  E   E  E  E  E  E  E     W                 
-------------------|---------------------------|-------------------|
-------------------|---------------------------|-------------------|
--5----------------|-----5s--3--5--7-----------|--3----------------|
--5----------------|--5--x------x--7--5--3--5--|--3----------------|
--3----------------|--3--3s--1--3--5--3--1--3--|--1----------------|
-------------------|---------------------------|-------------------|
-------------------|---------------------------|-------------------|


                         PM PM PM PM PM PM PM PM PM PM PM PM PM PM  
  W                   E  S  S  S  S  S  S  S  S  S  S  S  S  S  S   
-------------------|-----------------------------------------------|
-------------------|-----------------------------------------------|
--5----------------|--7--------------------------------------------|
--5----------------|--7--------------------------------------------|
--3----------------|--5--5--5--5--5--5--5--5--5--5--5--5--5--5--5--|
-------------------|-----------------------------------------------|
-------------------|-----------------------------------------------|


  PM              PM PM PM       PM PM PM PM PM PM PM PM PM PM PM PM PM PM  
  E  Q    E   E   E  E  E     E  S  S  S  S  S  S  S  S  S  S  S  S  S  S   
---------------------------|-----------------------------------------------|
---------------------------|-----------------------------------------------|
-----7----5s--7------------|--7--------------------------------------------|
--7--7----5s--7--10--7--5--|--7--------------------------------------------|
--5--5----3s--5---8--5--3--|--5--5--5--5--5--5--5--5--5--5--5--5--5--5--5--|
---------------------------|-----------------------------------------------|
---------------------------|-----------------------------------------------|


  PM PM PM PM   SH PM     PM PM PM                      
  S  S  S  S    E  E   E  E  E  E     W                 
-----------------------------------|-------------------|
-----------------------------------|-------------------|
----------------------10-----------|--5----------------|
--------------<>7-----10--9--7--5--|--5----------------|
--8--8--8--8-------8---8--7--5--3--|--3----------------|
-----------------------------------|-------------------|
-----------------------------------|-------------------|


  PM                  PM PM    PM PM PM PM PM PM PM PM PM PM PM PM PM PM PM  
  E  E   E  E   E  E  E  E     S  S  S  S  S  S  S  S  S  S  S  S  S  S  E   
----------------------------|-----------------------------------------------|
----------------------------|-----------------------------------------------|
-----5s--7--5s--7--5--------|--3--3--3--3--5--5--3--3--7--7--3--3--5--5--3--|
--5--x------x------x-----5--|-----------------------------------------------|
--3--3s--5--3s--5--3--0--3--|-----------------------------------------------|
----------------------------|-----------------------------------------------|
----------------------------|-----------------------------------------------|


  PM PM PM PM PM PM PM PM PM   PH             PM PM PM PM PM PM  
  S  S  E  S  S  E  S  S  E    Q       Q.     S  S  E  E  E  E   
------------------------------------|---------------------------|
------------------------------------|---------------------------|
------------------------------------|--3------------------------|
-----------------------------<>2----|--3------------3--3--3--3--|
--3--3--3--3--3--3--3--3--3---------|--1------1--1--1--1--0--1--|
------------------------------------|---------------------------|
------------------------------------|---------------------------|


       PM PM              
  Q    E  E  E   E  Q     
-------------------------|
-------------------------|
--5----------5------5----|
--5----5--5--3h--5--5----|
--3----3--3--3------3----|
-------------------------|
-------------------------|


   T             T      T             T      T          
   S   S  S   S  S   S  S   S  S   S  S   S  S   S  E   
-------------------------------------------------------|
-------------------------------------------------------|
-------------------------------------------------------|
-------------------------------------------------------|
--15p-12p-8h-12-15p-12-13p-12p-8h-12-15p-12-13p-12p-8--|
-------------------------------------------------------|
-------------------------------------------------------|


   T           T     T           T     T         
   S  S  S  S  S  S  S  S  S  S  S  S  S  S  E   
------------------------------------------------|
------------------------------------------------|
------------------------------------------------|
------------------------------------------------|
--12p-8p-5h-8-12p-8-10p-8p-5h-8-12p-8-10p-8p-5--|
------------------------------------------------|
------------------------------------------------|


  PM PM PM PM PM PM PM PM PM PM PM PM PM PM  
  E  S  S  S  S  S  S  E  S  S  S  S  S  S   
--------------------------------------------|
--------------------------------------------|
--------------------------------------------|
--5--------------------5--------------------|
--3--3--3--3--3--3--3--3--3--3--3--3--3--3--|
--------------------------------------------|
--------------------------------------------|


  PM PM PM PM PM PM PM PM PM PM PM PM PM PM                      
  E  S  S  S  S  S  S  E  S  S  S  S  S  S     W                 
--------------------------------------------|-------------------|
--------------------------------------------|-------------------|
--------------------------------------------|-------------------|
--5--------------------5--------------------|--3----------------|
--3--3--3--3--3--3--3--3--3--3--3--3--3--3--|--3----------------|
--------------------------------------------|--1----------------|
--------------------------------------------|-------------------|


                                   PM PM                PM PM PM  
  W                   H.           E  E     H        E  E  E  E   
-------------------|---------------------|-----------------------|
-------------------|---------------------|-----------------------|
-------------------|--3------------------|--5--------L-----------|
--L----------------|--3------------3--3--|--5--------L--5--7--5--|
--L----------------|--1------------0--1--|--3--------L--3--5--3--|
--L----------------|---------------------|-----------------------|
-------------------|---------------------|-----------------------|


  E  E  E  Q    E  E  E     W                 
-------------------------|-------------------|
-------------------------|-------------------|
--7-----7-------5-----3--|--L----------------|
--7-----7-------5-----3--|--L----------------|
--5-----5-------3-----1--|--L----------------|
--------5----------------|-------------------|
-------------------------|-------------------|


     PM PM PM PM PM PM PM PM PM PM PM PM PM PM  
  E  S  S  S  S  S  S  S  S  S  S  S  S  S  S   
-----------------------------------------------|
-----------------------------------------------|
-----------------------------------------------|
--5--------------------------------------------|
--5--------------------------------------------|
--3--3--3--3--3--3--3--3--3--3--3--3--3--3--3--|
-----------------------------------------------|


  PM PM PM PM PM PM PM PM PM PM PM PM PM PM PM PM                      
  S  S  S  S  S  S  S  S  S  S  S  S  S  S  S  S     W                 
--------------------------------------------------|-------------------|
--------------------------------------------------|-------------------|
--------------------------------------------------|--7----------------|
--------------------------------------------------|--7----------------|
--------------------------------------------------|--5----------------|
--3--3--3--3--3--3--3--3--3--3--3--3--3--3--3--3--|-------------------|
--------------------------------------------------|-------------------|


                       \1/   \1/   \1/   \1/   \1/   \1/   \1/   \1/   
  W                    S  S  S  S  S  S  S  S  S  S  S  S  S  S  S  S  
-------------------|--------------------------------------------------|
-------------------|--------------------------------------------------|
--5----------------|--14~---14~---14~---12~---14~---14~---14~---15~---|
--5----------------|--------------------------------------------------|
--3----------------|--------------------------------------------------|
-------------------|--------------------------------------------------|
-------------------|--------------------------------------------------|


   \1/   \1/   \1/   \1/   \1/   \1/   \1/   \1/   
   S  S  S  S  S  S  S  S  S  S  S  S  S  S  S  S  
--------------------------------------------------|
--------------------------------------------------|
--10~---10~---12~---12~---14~---14~---17~---17~---|
--------------------------------------------------|
--------------------------------------------------|
--------------------------------------------------|
--------------------------------------------------|


   TP    TP    TP   TP    TP    TP      TP    TP    TP   TP    TP    TP   
   E.    E.    E    E.    E.    E       E.    E.    E    E.    E.    E    
--17b---17b---17b--18b---18b---18b--|--17b---17b---17b--18b---18b---18b--|
------------------------------------|------------------------------------|
------------------------------------|------------------------------------|
------------------------------------|------------------------------------|
------------------------------------|------------------------------------|
------------------------------------|------------------------------------|
------------------------------------|------------------------------------|


         |---3---|  |---3---|              |---3---|  |---3---|        
   S  S  S   S   S  S   S   S  S  S  S  S  S   S   S  S   S   S  S  S  
--20-20-20p-18p-17-20p-18p-17-17--------------------------------------|
---------------------------------20-18-17-20p-18p-17------------------|
-----------------------------------------------------20p-19p-17-14-15-|
----------------------------------------------------------------------|
----------------------------------------------------------------------|
----------------------------------------------------------------------|
----------------------------------------------------------------------|


                                                             PH    PH   PH    PH
   |---6---|  |---6---|        |---3---|        |---3---|                       
   S   S   S  S   S   S  S  S  S   S   S  S  S  S   S   S    S     S    S     S 
--------------------------------------------------------------------------------
--------------------------------------------------------------------------------
--17p-15p-14-17p-15p-14---------------------------------------------------------
------------------------17-15-14h-15h-17-15-14----------------------------------
-----------------------------------------------17p-15p-12-<>13p-<>12-<>13p-<>12-
--------------------------------------------------------------------------------
--------------------------------------------------------------------------------


   PM PM PM PM PM PM PM PM PM  PM    PH     
   S  S  S  S  S  S  S  S  E   E     Q      
----------------------------------<>15~----|
--------------------------15---------------|
--14-14-14-14-15-15-14-14-----14-----------|
-------------------------------------------|
-------------------------------------------|
-------------------------------------------|
-------------------------------------------|


   PM PM PM PM PM PM PM PM PM PM PM PM   PH     
   S  S  S  S  S  S  S  S  S  S  S  S    Q      
-----------------------------------------------|
--------------------------15-15-------<>18~----|
--14-14-14-14-15-15-14-14-------14-14----------|
-----------------------------------------------|
-----------------------------------------------|
-----------------------------------------------|
-----------------------------------------------|


   E   E   E   E      E    E   E    S   S  
------------------------------------------|
----------14--15--15g17s--15--14h--15p-14-|
--14--15----------------------------------|
------------------------------------------|
------------------------------------------|
------------------------------------------|
------------------------------------------|


                     PH    PH    PH    PH    PH    
   E   E   E   E     S     S     S     S     Q     
--------------------------------------------------|
------14------------------------------------------|
--15------15--14--<>14h-<>15p-<>14h-<>15s-<>12----|
--------------------------------------------------|
--------------------------------------------------|
--------------------------------------------------|
--------------------------------------------------|


                    T      T         T                     T      T      
   |------5------|  |------5------|  |-------5-------|  |------5------|  
   S   S  S  S   S  S   S  S   S  S  S   S   S   S   S  S  S   S  S   S  
------------12h-15-18p-15-18p-12----------------------------------------|
---------14----------------------14-17p-14p-11h-14p-11------------------|
--12h-15-----------------------------------------------12-18p-12-18p-15-|
------------------------------------------------------------------------|
------------------------------------------------------------------------|
------------------------------------------------------------------------|
------------------------------------------------------------------------|


   T      T      T          T      T      T      T                
   |---6--|   |---6--|   |------5------|  |-------5------|        
   S   S  S   S  S   S   S  S   S  S   S  S   S  S   S   S  Q     
-----------------------------------------18p-15-18p-15p-12-12----|
---------------------------17p-14-17p-14-------------------------|
--18p-15-18p-15-18p-15p-12---------------------------------------|
-----------------------------------------------------------------|
-----------------------------------------------------------------|
-----------------------------------------------------------------|
-----------------------------------------------------------------|


   S  S  S  S  S  S  S  S  S  S  S  S  S  S  S  S  
--22-20-22-18-22-22-17-22-15-15-------------15-17-|
--------------------------------18-17-17-18-------|
--------------------------------------------------|
--------------------------------------------------|
--------------------------------------------------|
--------------------------------------------------|
--------------------------------------------------|


   S  S  S  S  S  S  S  S  S  S  S  S  S  S  S  S  
--20-18-20-20-17-20-15-20-22-------------17-18-20-|
-----------------------------18-17-18-20----------|
--------------------------------------------------|
--------------------------------------------------|
--------------------------------------------------|
--------------------------------------------------|
--------------------------------------------------|


   |---3---|                                       
   E   E   E   S  S  S  S  S  S  S  S  S  S  S  S  
--18--17------------------------------------------|
----------20--18-17-------------------------------|
--------------------19-17-19-17----------17-------|
--------------------------------20-19-20----20-19-|
--------------------------------------------------|
--------------------------------------------------|
--------------------------------------------------|


                                 |---3---|   |---3---|                          
      S  S  S  S  S  S  S  S     E   E   E   E   E   E      W                   
--------------------------------------------17--18--20--|--20b~----------------|
-----------------------15-17-15g17--18--20--------------|----------------------|
--------------14-15-17----------------------------------|----------------------|
--17g14-15-17-------------------------------------------|----------------------|
--------------------------------------------------------|----------------------|
--------------------------------------------------------|----------------------|
--------------------------------------------------------|----------------------|


                                          PM PM PM PM PM PM PM PM PM   SH    
  W                   W                   S  S  E  S  S  E  S  S  E    Q     
--L----------------|-------------------|------------------------------------|
-------------------|-------------------|------------------------------------|
-------------------|--3----------------|------------------------------------|
-------------------|--3----------------|-----------------------------<>5----|
-------------------|--1----------------|--3--3--3--3--3--3--3--3--3---------|
-------------------|-------------------|------------------------------------|
-------------------|-------------------|------------------------------------|


     PM PM PM PM PM PM PM PM PM PM PM PM PM PM  
  E  S  S  S  S  S  S  S  S  S  S  S  S  S  S   
-----------------------------------------------|
-----------------------------------------------|
--7--------------------------------------------|
--7--------------------------------------------|
--5--5--5--5--5--5--5--5--5--5--5--5--5--5--5--|
-----------------------------------------------|
-----------------------------------------------|


  PM PM PM PM PM PM PM PM PM PM PM PM PM PM PM PM                      
  S  S  S  S  S  S  S  S  S  S  S  S  S  S  S  S     W                 
--------------------------------------------------|-------------------|
--------------------------------------------------|-------------------|
--------------------------------------------------|--2----------------|
--------------------------------------------------|--2----------------|
--5--5--5--5--5--5--5--5--5--5--5--5--5--5--5--5--|--0----------------|
--------------------------------------------------|-------------------|
--------------------------------------------------|-------------------|


  PM PM PM PM PM PM PM PM PM PM  
  S  S  E  E  E  S  S  E  E  E   
--------------------------------|
--------------------------------|
--------------------------------|
--------3--3--3--------5--3--5--|
--1--1--1--0--1--3--3--3--1--3--|
--------------------------------|
--------------------------------|


     PM PM PM PM PM PM PM PM PM PM PM PM PM PM  
  E  S  S  S  S  S  S  S  S  S  S  S  S  S  S   
-----------------------------------------------|
-----------------------------------------------|
-----------------------------------------------|
--3--------------------------------------------|
--3--------------------------------------------|
--1--1--1--1--1--1--1--1--1--1--1--1--1--1--1--|
-----------------------------------------------|


  PM PM PM PM PM PM PM PM PM PM PM PM PM PM PM PM           PM PM PM PM PM PM  
  S  S  S  S  S  S  S  S  S  S  S  S  S  S  S  S     Q.     S  S  E  E  E  E   
--------------------------------------------------|---------------------------|
--------------------------------------------------|---------------------------|
--------------------------------------------------|--3------------------------|
--------------------------------------------------|--3------------3--3--3--3--|
--------------------------------------------------|--1------1--1--1--1--0--1--|
--1--1--1--1--1--1--1--1--1--1--1--1--1--1--1--1--|---------------------------|
--------------------------------------------------|---------------------------|


                                PM PM PM PM PM PM PM PM PM PM PM PM PM PM  
  Q.     E   E  E   E  E     E  S  S  S  S  S  S  S  S  S  S  S  S  S  S   
--------------------------|-----------------------------------------------|
--------------------------|-----------------------------------------------|
--5------5s--7--5s--7--5--|--2--------------------------------------------|
--5------x------x------x--|--2--------------------------------------------|
--3------3s--5--3s--5--3--|--0--0--0--0--0--0--0--0--0--0--0--0--0--0--0--|
--------------------------|-----------------------------------------------|
--------------------------|-----------------------------------------------|


     PM PM PM PM PM PM PM PM PM PM PM PM PM PM  
  E  S  S  S  S  S  S  S  S  S  S  S  S  S  S   
-----------------------------------------------|
-----------------------------------------------|
--3--------------------------------------------|
--3--------------------------------------------|
--1--1--1--1--1--1--1--1--1--1--1--1--1--1--1--|
-----------------------------------------------|
-----------------------------------------------|


     PM PM PM PM PM PM PM PM PM PM PM PM PM PM  
  E  S  S  S  S  S  S  S  S  S  S  S  S  S  S   
-----------------------------------------------|
-----------------------------------------------|
--5--------------------------------------------|
--5--------------------------------------------|
--3--3--3--3--3--3--3--3--3--3--3--3--3--3--3--|
-----------------------------------------------|
-----------------------------------------------|


     PM PM PM PM    PM PM PM PM    PM PM                      
  E  S  S  S  S  E  S  S  S  S  E  S  S     W                 
-----------------------------------------|-------------------|
-----------------------------------------|-------------------|
--5--------------5--------------5--------|--7----------------|
--5--------------5--------------5--------|--7----------------|
--3--3--3--3--3--3--3--3--3--3--3--3--3--|--5----------------|
-----------------------------------------|-------------------|
-----------------------------------------|-------------------|


  W                   W                   W                   W                 
-------------------|-------------------|-------------------|-------------------|
-------------------|-------------------|-------------------|-------------------|
--L----------------|--5----------------|--L----------------|--5----------------|
--L----------------|--5----------------|--L----------------|--5----------------|
--L----------------|--3----------------|--L----------------|--3----------------|
-------------------|-------------------|-------------------|-------------------|
-------------------|-------------------|-------------------|-------------------|


  W                   W                   H        Q     Q      
-------------------|-------------------|-----------------------|
-------------------|-------------------|-----------------------|
--L----------------|--7----------------|--L--------------------|
--L----------------|--7----------------|--L--------x\----x\----|
--L----------------|--5----------------|--L--------x\----x\----|
-------------------|-------------------|-----------x\----x\----|
-------------------|-------------------|-----------------------|


  W                   W                   W                   W                 
-------------------|-------------------|-------------------|-------------------|
-------------------|-------------------|-------------------|-------------------|
--7----------------|--L----------------|--5----------------|--L----------------|
--7----------------|--L----------------|--5----------------|--L----------------|
--5----------------|--L----------------|--3----------------|--L----------------|
-------------------|-------------------|-------------------|-------------------|
-------------------|-------------------|-------------------|-------------------|


  W                   W                   W                   W                 
-------------------|-------------------|-------------------|-------------------|
-------------------|-------------------|-------------------|-------------------|
--5----------------|--L----------------|--7----------------|--L----------------|
--5----------------|--L----------------|--7----------------|--L----------------|
--3----------------|--L----------------|--5----------------|--L----------------|
-------------------|-------------------|-------------------|-------------------|
-------------------|-------------------|-------------------|-------------------|


     PM PM PM PM PM PM PM PM PM PM PM PM PM PM  
  E  S  S  S  S  S  S  S  S  S  S  S  S  S  S   
-----------------------------------------------|
-----------------------------------------------|
--2--------------------------------------------|
--2--------------------------------------------|
--0--0--0--0--0--0--0--0--0--0--0--0--0--0--0--|
-----------------------------------------------|
-----------------------------------------------|


     PM PM PM PM PM PM PM PM PM PM PM PM PM PM  
  E  S  S  S  S  S  S  S  S  S  S  S  S  S  S   
-----------------------------------------------|
-----------------------------------------------|
--3--------------------------------------------|
--3--------------------------------------------|
--1--1--1--1--1--1--1--1--1--1--1--1--1--1--1--|
-----------------------------------------------|
-----------------------------------------------|


     PM PM PM PM PM PM PM PM PM PM PM PM PM PM  
  E  S  S  S  S  S  S  S  S  S  S  S  S  S  S   
-----------------------------------------------|
-----------------------------------------------|
-----------------------------------------------|
--3--3--3--3--3--3--3--7--7--3--3--7--7--3--3--|
-----------------------------------------------|
-----------------------------------------------|
-----------------------------------------------|


     PM PM PM PM PM PM PM PM PM PM PM PM PM PM                      
  E  S  S  S  S  S  S  S  S  S  S  S  S  S  S     W                 
-----------------------------------------------|-------------------|
-----------------------------------------------|-------------------|
-----------------------------------------------|--3----------------|
--2--2--2--2--2--2--2--5--5--2--2--5--5--2--2--|--3----------------|
-----------------------------------------------|--1----------------|
-----------------------------------------------|-------------------|
-----------------------------------------------|-------------------|


  W                   E  E  H.              W                 
-------------------|---------------------|-------------------|
-------------------|---------------------|-------------------|
--2----------------|--3------------------|-------------------|
--2----------------|--3------------------|-------------------|
--0----------------|--1------------------|-------------------|
-------------------|---------------------|-------------------|
-------------------|---------------------|-------------------|


               PM PM                   PM PM PM                      
  H.           E  E     Q.     E   E   E  E  E     W                 
---------------------|--------------------------|-------------------|
---------------------|--------------------------|-------------------|
--7------------------|--7------7----------------|--3----------------|
--7------------7--7--|--7------7--10--10--7--5--|--3----------------|
--5------------5--5--|--5------5---8---8--5--3--|--1----------------|
---------------------|--------------------------|-------------------|
---------------------|--------------------------|-------------------|


  PM PM PM PM PM PM PM PM PM   SH    
  S  S  E  S  S  E  S  S  E    Q     
------------------------------------|
------------------------------------|
------------------------------------|
-----------------------------<>5----|
--3--3--3--3--3--3--3--3--3---------|
------------------------------------|
------------------------------------|


     PM PM PM PM PM PM PM PM PM PM PM PM PM PM  
  E  S  S  S  S  S  S  S  S  S  S  S  S  S  S   
-----------------------------------------------|
-----------------------------------------------|
--7--------------------------------------------|
--7--------------------------------------------|
--5--5--5--5--5--5--5--5--5--5--5--5--5--5--5--|
-----------------------------------------------|
-----------------------------------------------|


  PM PM PM PM PM PM PM PM PM PM PM PM PM PM PM PM                      
  S  S  S  S  S  S  S  S  S  S  S  S  S  S  S  S     W                 
--------------------------------------------------|-------------------|
--------------------------------------------------|-------------------|
--------------------------------------------------|--2----------------|
--------------------------------------------------|--2----------------|
--5--5--5--5--5--5--5--5--5--5--5--5--5--5--5--5--|--0----------------|
--------------------------------------------------|-------------------|
--------------------------------------------------|-------------------|


  PM PM PM PM PM PM PM PM PM PM  
  S  S  E  E  E  S  S  E  E  E   
--------------------------------|
--------------------------------|
--------------------------------|
--------3--3--3--------5--3--5--|
--1--1--1--0--1--3--3--3--1--3--|
--------------------------------|
--------------------------------|


     PM PM PM PM PM PM PM PM PM PM PM PM PM PM  
  E  S  S  S  S  S  S  S  S  S  S  S  S  S  S   
-----------------------------------------------|
-----------------------------------------------|
-----------------------------------------------|
--3--------------------------------------------|
--3--------------------------------------------|
--1--1--1--1--1--1--1--1--1--1--1--1--1--1--1--|
-----------------------------------------------|


  PM PM PM PM PM PM PM PM PM PM PM PM PM PM PM PM           PM PM PM PM PM PM  
  S  S  S  S  S  S  S  S  S  S  S  S  S  S  S  S     Q.     S  S  E  E  E  E   
--------------------------------------------------|---------------------------|
--------------------------------------------------|---------------------------|
--------------------------------------------------|--3------------------------|
--------------------------------------------------|--3------------3--3--3--3--|
--------------------------------------------------|--1------1--1--1--1--0--1--|
--1--1--1--1--1--1--1--1--1--1--1--1--1--1--1--1--|---------------------------|
--------------------------------------------------|---------------------------|


                                PM PM PM PM PM PM PM PM PM PM PM PM PM PM  
  Q.     E   E  E   E  E     E  S  S  S  S  S  S  S  S  S  S  S  S  S  S   
--------------------------|-----------------------------------------------|
--------------------------|-----------------------------------------------|
--5------5s--7--5s--7--5--|--2--------------------------------------------|
--5------x------x------x--|--2--------------------------------------------|
--3------3s--5--3s--5--3--|--0--0--0--0--0--0--0--0--0--0--0--0--0--0--0--|
--------------------------|-----------------------------------------------|
--------------------------|-----------------------------------------------|


     PM PM PM PM PM PM PM PM PM PM PM PM PM PM  
  E  S  S  S  S  S  S  S  S  S  S  S  S  S  S   
-----------------------------------------------|
-----------------------------------------------|
--3--------------------------------------------|
--3--------------------------------------------|
--1--1--1--1--1--1--1--1--1--1--1--1--1--1--1--|
-----------------------------------------------|
-----------------------------------------------|


   * w/ Whammy Pedal                                              
   /6                /6 /6 /6 /6 /6 /6 /6 /6 /6 /6 /6 /6 /6 /6 /6 
   S                 S  S  S  S  S  S  S  S  S  S  S  S  S  S  S  
--10----------------10-------------------------------------------|
-----------------------10-10-------10-10-------------------------|
-----------------------------12-12-------10-10-------10-10-12-12-|
-----------------------------------------------12-12-------------|
-----------------------------------------------------------------|
-----------------------------------------------------------------|
-----------------------------------------------------------------|


   /6 /6 /6 /6 /6 /6 /6 /6 /6 /6 /6 /6 /6 /6 /6 -\6                      
   S  S  S  S  S  S  S  S  S  S  S  S  S  S  S  S      W                 
--------------------------10-10-------10-10-13-13--|--10----------------|
--10-10-------10-10-13-13-------13-13--------------|--------------------|
--------12-12--------------------------------------|--------------------|
---------------------------------------------------|--------------------|
---------------------------------------------------|--------------------|
---------------------------------------------------|--------------------|
---------------------------------------------------|--------------------|


  H         Q     Q        W                    Q.      Q.      Q     
--L--------12----13----|--13----------------|--15------13------12----|
-----------------------|--------------------|------------------------|
-----------------------|--------------------|------------------------|
-----------------------|--------------------|------------------------|
-----------------------|--------------------|------------------------|
-----------------------|--------------------|------------------------|
-----------------------|--------------------|------------------------|


   E   E   H.              W                 
--13--12--10------------|--L----------------|
------------------------|-------------------|
------------------------|-------------------|
------------------------|-------------------|
------------------------|-------------------|
------------------------|-------------------|
------------------------|-------------------|


   /6 /6 /6 /6 /6 /6 /6 /6 /6 /6 /6 /6 /6 /6 /6 /6 
   S  S  S  S  S  S  S  S  S  S  S  S  S  S  S  S  
--10-10-------------------------------------------|
--------10-10-------10-10-------------------------|
--------------12-12-------10-10-------10-10-12-12-|
--------------------------------12-12-------------|
--------------------------------------------------|
--------------------------------------------------|
--------------------------------------------------|


   /6 /6 /6 /6 /6 /6 /6 /6 /6 /6 /6 /6 /6 /6 /6 -\6 
   S  S  S  S  S  S  S  S  S  S  S  S  S  S  S  S   
--------------------------10-10-------10-10-13-13--|
--10-10-------10-10-13-13-------13-13--------------|
--------12-12--------------------------------------|
---------------------------------------------------|
---------------------------------------------------|
---------------------------------------------------|
---------------------------------------------------|


   T             T             T             T             T             T      
   T   T  T   T  T   T  T   T  T   T  T   T  T   T  T   T  T   T  T   T  T   T  
--17p-12p-9h-12-17p-12p-9h-12-17p-12p-9h-12-17p-12p-9h-12-17p-12p-9h-12-17p-12p-
--------------------------------------------------------------------------------
--------------------------------------------------------------------------------
--------------------------------------------------------------------------------
--------------------------------------------------------------------------------
--------------------------------------------------------------------------------
--------------------------------------------------------------------------------


   tr       tr       tr       tr        
   Q        Q        Q        Q         
--17(8)----17(7)----17(8)----17(12)----|
---------------------------------------|
---------------------------------------|
---------------------------------------|
---------------------------------------|
---------------------------------------|
---------------------------------------|


   S  S  S  S  S  S  S  S  S  S  S  S  S  S  S  S  
--------------------------------------------------|
-----------------------------------17-18-17-18-18-|
-----------14-15-14-15-17-17-15-17----------------|
--15-14-15----------------------------------------|
--------------------------------------------------|
--------------------------------------------------|
--------------------------------------------------|


   S  S  S  S  S  S  S  S  S  S  S  S  S  S  S  S  
--20-18-17-------18-------------------------------|
-----------18-20----20-17-18-17-15----17-15-------|
-----------------------------------17-------17-15-|
--------------------------------------------------|
--------------------------------------------------|
--------------------------------------------------|
--------------------------------------------------|


   * w/ Whammy Pedal                                                           
   -\6              /6 -\6 /6 -\6 /6 -\6 /6 -\6 /6 -\6 /6 -\6 /6 -\6 /6 -\6    
   |-------------5------------|                 |------5------|                
   S                S  S   S  S   S  S   S  S   S  S   S  S   S  S   S  S   S  
------------------------------------------------------------------------------|
--10----------------L--L---L--L---L--L---L--L---L--L---L--L---L--L---L--L---L-|
------------------------------------------------------------------------------|
------------------------------------------------------------------------------|
------------------------------------------------------------------------------|
------------------------------------------------------------------------------|
------------------------------------------------------------------------------|


   E   Q.     H           
--13--13------L\--------||
------------------------||
------------------------||
------------------------||
------------------------||
------------------------||
------------------------||

***************************************************************************************
#######################################################################################
***************************************************************************************

Herman Li | Overdub



E||-------|-------|-------|-------|-------|-------|-------|-------|-------|
B||-------|-------|-------|-------|-------|-------|-------|-------|-------|
G||-------|-------|-------|-------|-------|-------|-------|-------|-------|
D||-------|-------|-------|-------|-------|-------|-------|-------|-------|
A||-------|-------|-------|-------|-------|-------|-------|-------|-------|
E||-------|-------|-------|-------|-------|-------|-------|-------|-------|
B||-------|-------|-------|-------|-------|-------|-------|-------|-------|


-------|-------|-------|-------|-------|-------|-------|-------|-------|-------|
-------|-------|-------|-------|-------|-------|-------|-------|-------|-------|
-------|-------|-------|-------|-------|-------|-------|-------|-------|-------|
-------|-------|-------|-------|-------|-------|-------|-------|-------|-------|
-------|-------|-------|-------|-------|-------|-------|-------|-------|-------|
-------|-------|-------|-------|-------|-------|-------|-------|-------|-------|
-------|-------|-------|-------|-------|-------|-------|-------|-------|-------|


-------|-------|-------|-------|-------|-------|-------|-------|-------|-------|
-------|-------|-------|-------|-------|-------|-------|-------|-------|-------|
-------|-------|-------|-------|-------|-------|-------|-------|-------|-------|
-------|-------|-------|-------|-------|-------|-------|-------|-------|-------|
-------|-------|-------|-------|-------|-------|-------|-------|-------|-------|
-------|-------|-------|-------|-------|-------|-------|-------|-------|-------|
-------|-------|-------|-------|-------|-------|-------|-------|-------|-------|


-------|-------|-------|-------|-------|-------|-------|-------|-------|-------|
-------|-------|-------|-------|-------|-------|-------|-------|-------|-------|
-------|-------|-------|-------|-------|-------|-------|-------|-------|-------|
-------|-------|-------|-------|-------|-------|-------|-------|-------|-------|
-------|-------|-------|-------|-------|-------|-------|-------|-------|-------|
-------|-------|-------|-------|-------|-------|-------|-------|-------|-------|
-------|-------|-------|-------|-------|-------|-------|-------|-------|-------|


-------|-------|-------|-------|-------|-------|-------|-------|-------|-------|
-------|-------|-------|-------|-------|-------|-------|-------|-------|-------|
-------|-------|-------|-------|-------|-------|-------|-------|-------|-------|
-------|-------|-------|-------|-------|-------|-------|-------|-------|-------|
-------|-------|-------|-------|-------|-------|-------|-------|-------|-------|
-------|-------|-------|-------|-------|-------|-------|-------|-------|-------|
-------|-------|-------|-------|-------|-------|-------|-------|-------|-------|


-------|-------|-------|-------|-------|-------|-------|-------|-------|-------|
-------|-------|-------|-------|-------|-------|-------|-------|-------|-------|
-------|-------|-------|-------|-------|-------|-------|-------|-------|-------|
-------|-------|-------|-------|-------|-------|-------|-------|-------|-------|
-------|-------|-------|-------|-------|-------|-------|-------|-------|-------|
-------|-------|-------|-------|-------|-------|-------|-------|-------|-------|
-------|-------|-------|-------|-------|-------|-------|-------|-------|-------|


                                                   -/1               
                                                   W                 
-------|-------|-------|-------|-------|-------|--17----------------|
-------|-------|-------|-------|-------|-------|---x----------------|
-------|-------|-------|-------|-------|-------|--14----------------|
-------|-------|-------|-------|-------|-------|--------------------|
-------|-------|-------|-------|-------|-------|--------------------|
-------|-------|-------|-------|-------|-------|--------------------|
-------|-------|-------|-------|-------|-------|--------------------|


   -/1                  -/1                    -/1               
   W                    H.            Q        W                 
--15----------------|--13------------------|--12----------------|
---x----------------|---x------------11----|---x----------------|
--12----------------|--10-------------x----|---9----------------|
--------------------|-----------------8----|--------------------|
--------------------|----------------------|--------------------|
--------------------|----------------------|--------------------|
--------------------|----------------------|--------------------|


   E  Q.     H                                                                 
--13------------------|-------|-------|-------|-------|-------|-------|-------|
---x------------------|-------|-------|-------|-------|-------|-------|-------|
--10------------------|-------|-------|-------|-------|-------|-------|-------|
----------------------|-------|-------|-------|-------|-------|-------|-------|
----------------------|-------|-------|-------|-------|-------|-------|-------|
----------------------|-------|-------|-------|-------|-------|-------|-------|
----------------------|-------|-------|-------|-------|-------|-------|-------|


-------|-------|-------|-------|-------|-------|-------|-------|-------|-------|
-------|-------|-------|-------|-------|-------|-------|-------|-------|-------|
-------|-------|-------|-------|-------|-------|-------|-------|-------|-------|
-------|-------|-------|-------|-------|-------|-------|-------|-------|-------|
-------|-------|-------|-------|-------|-------|-------|-------|-------|-------|
-------|-------|-------|-------|-------|-------|-------|-------|-------|-------|
-------|-------|-------|-------|-------|-------|-------|-------|-------|-------|


-------|-------|-------|-------|-------|-------|-------|-------|-------|-------|
-------|-------|-------|-------|-------|-------|-------|-------|-------|-------|
-------|-------|-------|-------|-------|-------|-------|-------|-------|-------|
-------|-------|-------|-------|-------|-------|-------|-------|-------|-------|
-------|-------|-------|-------|-------|-------|-------|-------|-------|-------|
-------|-------|-------|-------|-------|-------|-------|-------|-------|-------|
-------|-------|-------|-------|-------|-------|-------|-------|-------|-------|


-------|-------|-------|-------|-------|-------|-------|-------|-------|-------|
-------|-------|-------|-------|-------|-------|-------|-------|-------|-------|
-------|-------|-------|-------|-------|-------|-------|-------|-------|-------|
-------|-------|-------|-------|-------|-------|-------|-------|-------|-------|
-------|-------|-------|-------|-------|-------|-------|-------|-------|-------|
-------|-------|-------|-------|-------|-------|-------|-------|-------|-------|
-------|-------|-------|-------|-------|-------|-------|-------|-------|-------|


-------|-------|-------|-------|-------|-------|-------|-------|-------|-------|
-------|-------|-------|-------|-------|-------|-------|-------|-------|-------|
-------|-------|-------|-------|-------|-------|-------|-------|-------|-------|
-------|-------|-------|-------|-------|-------|-------|-------|-------|-------|
-------|-------|-------|-------|-------|-------|-------|-------|-------|-------|
-------|-------|-------|-------|-------|-------|-------|-------|-------|-------|
-------|-------|-------|-------|-------|-------|-------|-------|-------|-------|


-------|-------|-------|-------|-------|-------|-------|-------|-------|-------|
-------|-------|-------|-------|-------|-------|-------|-------|-------|-------|
-------|-------|-------|-------|-------|-------|-------|-------|-------|-------|
-------|-------|-------|-------|-------|-------|-------|-------|-------|-------|
-------|-------|-------|-------|-------|-------|-------|-------|-------|-------|
-------|-------|-------|-------|-------|-------|-------|-------|-------|-------|
-------|-------|-------|-------|-------|-------|-------|-------|-------|-------|


                                           -/1               
                                           W                 
-------|-------|-------|-------|-------|--17----------------|
-------|-------|-------|-------|-------|---x----------------|
-------|-------|-------|-------|-------|--14----------------|
-------|-------|-------|-------|-------|--------------------|
-------|-------|-------|-------|-------|--------------------|
-------|-------|-------|-------|-------|--------------------|
-------|-------|-------|-------|-------|--------------------|


   -/1                  -/1                    -/1               
   W                    H.            Q        W                 
--15----------------|--13------------------|--12----------------|
---x----------------|---x------------11----|---x----------------|
--12----------------|--10-------------x----|---9----------------|
--------------------|-----------------8----|--------------------|
--------------------|----------------------|--------------------|
--------------------|----------------------|--------------------|
--------------------|----------------------|--------------------|


   E  Q.     H           W                                                 
--13------------------|-------------------|-------|-------|-------|-------|
---x------------------|-------------------|-------|-------|-------|-------|
--10------------------|-------------------|-------|-------|-------|-------|
----------------------|-------------------|-------|-------|-------|-------|
----------------------|-------------------|-------|-------|-------|-------|
----------------------|-------------------|-------|-------|-------|-------|
----------------------|-------------------|-------|-------|-------|-------|


-------|-------|-------|-------|-------|-------|-------|-------|-------|-------|
-------|-------|-------|-------|-------|-------|-------|-------|-------|-------|
-------|-------|-------|-------|-------|-------|-------|-------|-------|-------|
-------|-------|-------|-------|-------|-------|-------|-------|-------|-------|
-------|-------|-------|-------|-------|-------|-------|-------|-------|-------|
-------|-------|-------|-------|-------|-------|-------|-------|-------|-------|
-------|-------|-------|-------|-------|-------|-------|-------|-------|-------|


          W                                                         
-------|-------------------|-------------------|-------------------|
-------|-------------------|-------------------|-------------------|
-------|-------------------|-------------------|-------------------|
-------|-------------------|-------------------|-------------------|
-------|-------------------|-------------------|-------------------|
-------|-------------------|-------------------|-------------------|
-------|-------------------|-------------------|-------------------|


-------------------|-------------------|-------|-------|-------|-------|-------|
-------------------|-------------------|-------|-------|-------|-------|-------|
-------------------|-------------------|-------|-------|-------|-------|-------|
-------------------|-------------------|-------|-------|-------|-------|-------|
-------------------|-------------------|-------|-------|-------|-------|-------|
-------------------|-------------------|-------|-------|-------|-------|-------|
-------------------|-------------------|-------|-------|-------|-------|-------|


-------|-------|-------|-------|-------||-------|-------|-------|-------|
-------|-------|-------|-------|-------||-------|-------|-------|-------|
-------|-------|-------|-------|-------||-------|-------|-------|-------|
-------|-------|-------|-------|-------||-------|-------|-------|-------|
-------|-------|-------|-------|-------||-------|-------|-------|-------|
-------|-------|-------|-------|-------||-------|-------|-------|-------|
-------|-------|-------|-------|-------||-------|-------|-------|-------|


-------|-------|-------|--------||-------|-------|-------|-------|-------|
-------|-------|-------|--------||-------|-------|-------|-------|-------|
-------|-------|-------|--------||-------|-------|-------|-------|-------|
-------|-------|-------|--------||-------|-------|-------|-------|-------|
-------|-------|-------|--------||-------|-------|-------|-------|-------|
-------|-------|-------|--------||-------|-------|-------|-------|-------|
-------|-------|-------|--------||-------|-------|-------|-------|-------|


                  H.           E   E     E   E   E   E   E   E   E   E   
-------|-------|----------------------|-------------17------------------|
-------|-------|----------------------|---------18------20--18------18--|
-------|-------|------------------19--|--L--19------------------19------|
-------|-------|----------------------|---------------------------------|
-------|-------|----------------------|---------------------------------|
-------|-------|----------------------|---------------------------------|
-------|-------|----------------------|---------------------------------|


  E   E   E   E   E    E    E    E      E   E   E   E   E    E  E   E   
------------------------------------|------------------20br--L--L------|
--L---------------------------------|--20--18--20--22--------------22--|
-----19--17------17s--19s--17s--19--|----------------------------------|
-------------19---------------------|----------------------------------|
------------------------------------|----------------------------------|
------------------------------------|----------------------------------|
------------------------------------|----------------------------------|


  E   E   E   E  Q.      E     E   E   E   E   E   E   E   E   
----------------------------|-------------17------------------|
--L--20--18-----------------|---------18------20--18------18--|
-------------19--L------19--|--L--19------------------19------|
----------------------------|---------------------------------|
----------------------------|---------------------------------|
----------------------------|---------------------------------|
----------------------------|---------------------------------|


  E   E   E   E   E    E    E   E      E   E   E   E   E   E   E   E   
-----------------------------------|----------------------------------|
--L--------------------------------|----------------------------------|
-----19--17------17s--19s--17------|--17----------------------17------|
-------------19----------------19--|------19--17--15--17--19------19--|
-----------------------------------|----------------------------------|
-----------------------------------|----------------------------------|
-----------------------------------|----------------------------------|


   E    E   E   E    E   E   E    E                                   
-------------------------------------|-------|-------|-------|-------|
----------------------------22s--25--|-------|-------|-------|-------|
---------------22s--24--24-----------|-------|-------|-------|-------|
--22s--24--24------------------------|-------|-------|-------|-------|
-------------------------------------|-------|-------|-------|-------|
-------------------------------------|-------|-------|-------|-------|
-------------------------------------|-------|-------|-------|-------|


  E  E  E  E  E  E  E  E     E  E  E  E  E   E   E   E   
--5--5--------------------|-----------------------------|
--------8--6--8--6-----6--|--L--------------------------|
--------------------7-----|-----7--5-----5s--7s--5s--7--|
--------------------------|-----------7-----------------|
--------------------------|-----------------------------|
--------------------------|-----------------------------|
--------------------------|-----------------------------|


  E  E  E  E   E  E  E  E     S  S  S  S  S  S S  S  S  S  S  S S   S  S   S  
--------5--8--10--8--5--8--|-------------------------------------------------|
--6--6---------------------|--5h-6p-5h-6p-5h-6-6h-8p-6h-8p-6h-8-8h-10p-8h-10-|
---------------------------|-------------------------------------------------|
---------------------------|-------------------------------------------------|
---------------------------|-------------------------------------------------|
---------------------------|-------------------------------------------------|
---------------------------|-------------------------------------------------|


-------|-------|-------|-------|-------|-------|-------|-------|-------|-------|
-------|-------|-------|-------|-------|-------|-------|-------|-------|-------|
-------|-------|-------|-------|-------|-------|-------|-------|-------|-------|
-------|-------|-------|-------|-------|-------|-------|-------|-------|-------|
-------|-------|-------|-------|-------|-------|-------|-------|-------|-------|
-------|-------|-------|-------|-------|-------|-------|-------|-------|-------|
-------|-------|-------|-------|-------|-------|-------|-------|-------|-------|


-------|-------|-------|-------|-------|-------|-------|
-------|-------|-------|-------|-------|-------|-------|
-------|-------|-------|-------|-------|-------|-------|
-------|-------|-------|-------|-------|-------|-------|
-------|-------|-------|-------|-------|-------|-------|
-------|-------|-------|-------|-------|-------|-------|
-------|-------|-------|-------|-------|-------|-------|


  E   E   E   E   E    E    E    E      E   E   E   E   E    E  E   E   
------------------------------------|------------------20br--L--L------|
--L---------------------------------|--20--18--20--22--------------22--|
-----19--17------17s--19s--17s--19--|----------------------------------|
-------------19---------------------|----------------------------------|
------------------------------------|----------------------------------|
------------------------------------|----------------------------------|
------------------------------------|----------------------------------|


  E   E   E   E  Q.      E     E   E   E   E   E   E   E   E   
----------------------------|-------------17------------------|
--L--20--18-----------------|---------18------20--18------18--|
-------------19--L------19--|--L--19------------------19------|
----------------------------|---------------------------------|
----------------------------|---------------------------------|
----------------------------|---------------------------------|
----------------------------|---------------------------------|


  E   E   E   E   E    E    E   E      E   E   E   E   E   E   E   E   
-----------------------------------|----------------------------------|
--L--------------------------------|----------------------------------|
-----19--17------17s--19s--17------|--17----------------------17------|
-------------19----------------19--|------19--17--15--17--19------19--|
-----------------------------------|----------------------------------|
-----------------------------------|----------------------------------|
-----------------------------------|----------------------------------|


   E    E   E   E    E   E   E    E                                   
-------------------------------------|-------|-------|-------|-------|
----------------------------22s--25--|-------|-------|-------|-------|
---------------22s--24--24-----------|-------|-------|-------|-------|
--22s--24--24------------------------|-------|-------|-------|-------|
-------------------------------------|-------|-------|-------|-------|
-------------------------------------|-------|-------|-------|-------|
-------------------------------------|-------|-------|-------|-------|


  E  E  E  E  E  E  E  E     E  E  E  E  E   E   E   E   
--5--5--------------------|-----------------------------|
--------8--6--8--6-----6--|--L--------------------------|
--------------------7-----|-----7--5-----5s--7s--5s--7--|
--------------------------|-----------7-----------------|
--------------------------|-----------------------------|
--------------------------|-----------------------------|
--------------------------|-----------------------------|


  E  E  E  E   E  E  E  E     S  S  S  S  S  S S  S  S  S  S  S S   S  S   S  
--------5--8--10--8--5--8--|-------------------------------------------------|
--6--6---------------------|--5h-6p-5h-6p-5h-6-6h-8p-6h-8p-6h-8-8h-10p-8h-10-|
---------------------------|-------------------------------------------------|
---------------------------|-------------------------------------------------|
---------------------------|-------------------------------------------------|
---------------------------|-------------------------------------------------|
---------------------------|-------------------------------------------------|


----|----|----|----|----|----|----|----|----|----|----|----|----|----|----|----|
----|----|----|----|----|----|----|----|----|----|----|----|----|----|----|----|
----|----|----|----|----|----|----|----|----|----|----|----|----|----|----|----|
----|----|----|----|----|----|----|----|----|----|----|----|----|----|----|----|
----|----|----|----|----|----|----|----|----|----|----|----|----|----|----|----|
----|----|----|----|----|----|----|----|----|----|----|----|----|----|----|----|
----|----|----|----|----|----|----|----|----|----|----|----|----|----|----|----|


----|----|----|----|----|----|----|----|----|
----|----|----|----|----|----|----|----|----|
----|----|----|----|----|----|----|----|----|
----|----|----|----|----|----|----|----|----|
----|----|----|----|----|----|----|----|----|
----|----|----|----|----|----|----|----|----|
----|----|----|----|----|----|----|----|----|


   S  S  S  S  S  S  S  S  S  S  S  S  S  S  S  S  
--------------------------------------------------|
-----------------12-------------------------------|
-----------12-14----14-12-14-14-12-12-14-14-12-12-|
--14-12-14----------------------------------------|
--------------------------------------------------|
--------------------------------------------------|
--------------------------------------------------|


   S  S  S  S  S  S  S  S  S  S  S  S  S  S  S  S  
--------------------------------------------------|
--15-12----------------12-12-12-------12-12-------|
--------12----------12----------14-14-------14-14-|
-----------14----14-------------------------------|
--------------14----------------------------------|
--------------------------------------------------|
--------------------------------------------------|


   S  S  S  S  S  S  S  S  S  S  S  S  S  S  S  S  
--------------------------------------------------|
-----------------12-------------------------------|
-----------12-14----14-12-14-14-12-12-14-14-12-12-|
--14-12-14----------------------------------------|
--------------------------------------------------|
--------------------------------------------------|
--------------------------------------------------|


   S  S  S  S  S  S  S  S  S  S  S  S  S  S  S  S  
-----------12-------------------------------------|
--15-12-15----15-12-------12-12-15-15-12-12-------|
--------------------14-12-------------------14-14-|
--------------------------------------------------|
--------------------------------------------------|
--------------------------------------------------|
--------------------------------------------------|


   S  S  S  S  S  S  S  S  S  S  S  S  S  S  S  S  
--------------------------------------------------|
--17-12-------------------12----12-15-12----------|
--------12----------12-14----14----------14-12----|
-----------14----14----------------------------14-|
--------------14----------------------------------|
--------------------------------------------------|
--------------------------------------------------|


   S  S  S  S  S  S  S  S  S  S  S  S  Q     
--------------------------------------------|
--17-17-12----12----------12----12-15-------|
-----------12----12----12----14-------14----|
--------------------14----------------------|
--------------------------------------------|
--------------------------------------------|
--------------------------------------------|


   S  S  S  S  S  S  S  S  S  S  S  S  S  S  S  S  
--------------------------------------------------|
--17-12-------------------12----12-15-12----------|
--------12----------12-14----14----------14-12----|
-----------14----14----------------------------14-|
--------------14----------------------------------|
--------------------------------------------------|
--------------------------------------------------|


   S  S  S  S  S  S  S  S  S  S  S  S  Q          Q    E     Q.      E  E   
--------------------------------------------|------------------------------|
--12----------------------------------------|--8g12-------8g10------10--8--|
-----14-12-14-12-------------------12-------|------------------------------|
-----------------14-12----------12----14----|------------------------------|
-----------------------14-12-14-------------|------------------------------|
--------------------------------------------|------------------------------|
--------------------------------------------|------------------------------|


                                          PM PM -/1   -/1   -/1   
                           |-----5-----|        |-----3-----|     
  E  E   E  E  H           S  S  S  S  S  E  E  Q     Q     Q     
--7--8--10--------------|--7h-8p-7h-8p-7-------------------------|
------------8--L--------|----------------10--8--8----10----12----|
------------------------|----------------------------------------|
------------------------|----------------------------------------|
------------------------|----------------------------------------|
------------------------|----------------------------------------|
------------------------|----------------------------------------|


   -/1                                                                         
   H         E  Q.                                                             
-----------------------|----|----|----|----|----|----|----|----|----|----|----|
--12--------12---------|----|----|----|----|----|----|----|----|----|----|----|
-----------------------|----|----|----|----|----|----|----|----|----|----|----|
-----------------------|----|----|----|----|----|----|----|----|----|----|----|
-----------------------|----|----|----|----|----|----|----|----|----|----|----|
-----------------------|----|----|----|----|----|----|----|----|----|----|----|
-----------------------|----|----|----|----|----|----|----|----|----|----|----|


----|----|----|----|----|----|----|----|----|----|----|----|----|----|----|----|
----|----|----|----|----|----|----|----|----|----|----|----|----|----|----|----|
----|----|----|----|----|----|----|----|----|----|----|----|----|----|----|----|
----|----|----|----|----|----|----|----|----|----|----|----|----|----|----|----|
----|----|----|----|----|----|----|----|----|----|----|----|----|----|----|----|
----|----|----|----|----|----|----|----|----|----|----|----|----|----|----|----|
----|----|----|----|----|----|----|----|----|----|----|----|----|----|----|----|


                            \1/   \1/   \1/  \1/    \1/   \1/   \1/   \1/   
                            S  S  S  S  S  S S   S  S  S  S  S  S  S  S  S  
----|----|----|----|----|--------------------------------------------------|
----|----|----|----|----|--------------------------------------------------|
----|----|----|----|----|--10~---10~---10~---9~----10~---10~---10~---12~---|
----|----|----|----|----|--------------------------------------------------|
----|----|----|----|----|--------------------------------------------------|
----|----|----|----|----|--------------------------------------------------|
----|----|----|----|----|--------------------------------------------------|


  \1/   \1/   \1/   \1/    \1/   \1/   \1/   \1/   
  S   S S   S S   S S   S  S  S  S  S  S  S  S  S  
--------------------------------------------------|
--------------------------------------------------|
--7~----7~----9~----9~----10~---10~---14~---14~---|
--------------------------------------------------|
--------------------------------------------------|
--------------------------------------------------|
--------------------------------------------------|


   TP    TP    TP   TP    TP    TP      TP    TP    TP   TP    TP    TP        
   E.    E.    E    E.    E.    E       E.    E.    E    E.    E.    E         
--13b---13b---13b--15b---15b---15b--|--13b---13b---13b--15b---15b---15b--|----|
------------------------------------|------------------------------------|----|
------------------------------------|------------------------------------|----|
------------------------------------|------------------------------------|----|
------------------------------------|------------------------------------|----|
------------------------------------|------------------------------------|----|
------------------------------------|------------------------------------|----|


        PM PM PM PM PM PM PM PM PM  PM    PH     
        S  S  S  S  S  S  S  S  E   E     Q      
----|-------------------------------------------|
----|----------------------------------<>17~----|
----|--------------------------15---------------|
----|--15-15-15-15-17-17-15-15-----15-----------|
----|-------------------------------------------|
----|-------------------------------------------|
----|-------------------------------------------|


   PM PM PM PM PM PM PM PM PM PM PM PM   PH               
   S  S  S  S  S  S  S  S  S  S  S  S    Q                
-----------------------------------------------|----|----|
--------------------------------------<>15~----|----|----|
--------------------------15-15----------------|----|----|
--15-15-15-15-17-17-15-15-------15-15----------|----|----|
-----------------------------------------------|----|----|
-----------------------------------------------|----|----|
-----------------------------------------------|----|----|


                  T      T         T                 T     T     T     T  
  |------5-----|  |------5------|  |---6---|   |--6--| |--6--|   |--6--|  
  S   S  S S   S  S   S  S   S  S  S   S   S   S  S  S S   S S   S S   S  
-----------9h-12-15p-12-15p-12p-9----------------------------------------|
--------11------------------------11h-14p-11h-14p-8----------------------|
--9h-12---------------------------------------------15-9h-15-9h-15-9h-15-|
-------------------------------------------------------------------------|
-------------------------------------------------------------------------|
-------------------------------------------------------------------------|
-------------------------------------------------------------------------|


  T      T      T          T      T      T     T         T                    
  |---6--|   |---6--|   |------5------|  |------5-----|                       
  S   S  S   S  S   S   S  S   S  S   S  S  S  S   S  S  Q                    
----------------------------------------15p-9-15p-12p-9-18----|----|----|----|
--------------------------14p-11-14p-11-----------------------|----|----|----|
--9h-15-12h-15-12h-15p-12-------------------------------------|----|----|----|
--------------------------------------------------------------|----|----|----|
--------------------------------------------------------------|----|----|----|
--------------------------------------------------------------|----|----|----|
--------------------------------------------------------------|----|----|----|


----|----|----|----|----|----|----|----|----|----|----|----|----|----|----|----|
----|----|----|----|----|----|----|----|----|----|----|----|----|----|----|----|
----|----|----|----|----|----|----|----|----|----|----|----|----|----|----|----|
----|----|----|----|----|----|----|----|----|----|----|----|----|----|----|----|
----|----|----|----|----|----|----|----|----|----|----|----|----|----|----|----|
----|----|----|----|----|----|----|----|----|----|----|----|----|----|----|----|
----|----|----|----|----|----|----|----|----|----|----|----|----|----|----|----|


----|----|----|----|----|----|----|----|----|----|----|----|----|----|----|----|
----|----|----|----|----|----|----|----|----|----|----|----|----|----|----|----|
----|----|----|----|----|----|----|----|----|----|----|----|----|----|----|----|
----|----|----|----|----|----|----|----|----|----|----|----|----|----|----|----|
----|----|----|----|----|----|----|----|----|----|----|----|----|----|----|----|
----|----|----|----|----|----|----|----|----|----|----|----|----|----|----|----|
----|----|----|----|----|----|----|----|----|----|----|----|----|----|----|----|


----|----|----|----|----|----|----|----|----|-------|-------|-------|-------|
----|----|----|----|----|----|----|----|----|-------|-------|-------|-------|
----|----|----|----|----|----|----|----|----|-------|-------|-------|-------|
----|----|----|----|----|----|----|----|----|-------|-------|-------|-------|
----|----|----|----|----|----|----|----|----|-------|-------|-------|-------|
----|----|----|----|----|----|----|----|----|-------|-------|-------|-------|
----|----|----|----|----|----|----|----|----|-------|-------|-------|-------|


-------|-------|-------|-------|-------|-------|-------|-------|-------|-------|
-------|-------|-------|-------|-------|-------|-------|-------|-------|-------|
-------|-------|-------|-------|-------|-------|-------|-------|-------|-------|
-------|-------|-------|-------|-------|-------|-------|-------|-------|-------|
-------|-------|-------|-------|-------|-------|-------|-------|-------|-------|
-------|-------|-------|-------|-------|-------|-------|-------|-------|-------|
-------|-------|-------|-------|-------|-------|-------|-------|-------|-------|


-------|-------|-------|-------|-------|-------|-------|-------|-------|-------|
-------|-------|-------|-------|-------|-------|-------|-------|-------|-------|
-------|-------|-------|-------|-------|-------|-------|-------|-------|-------|
-------|-------|-------|-------|-------|-------|-------|-------|-------|-------|
-------|-------|-------|-------|-------|-------|-------|-------|-------|-------|
-------|-------|-------|-------|-------|-------|-------|-------|-------|-------|
-------|-------|-------|-------|-------|-------|-------|-------|-------|-------|


-------|-------|-------|-------|-------|-------||
-------|-------|-------|-------|-------|-------||
-------|-------|-------|-------|-------|-------||
-------|-------|-------|-------|-------|-------||
-------|-------|-------|-------|-------|-------||
-------|-------|-------|-------|-------|-------||
-------|-------|-------|-------|-------|-------||


***************************************************************************************
#######################################################################################
***************************************************************************************


Herman Li | Rhythm



           PM PM PM PM PM PM    PM PM PM PM PM PM PM     
     E  E  E  E  E  E  E  E     E  E  E  E  E  E  E  E   
E||--------------------------|--------------------------|
B||--------------------------|--------------------------|
G||--7--7--------------------|-----------------------7--|
D||--7--7--------------------|-----------------------7--|
A||--5--5--5--5--5--5--5--5--|--5--5--5--5--5--5--5--5--|
E||--------------------------|--------------------------|
B||--------------------------|--------------------------|


        PM PM PM PM PM PM    PM PM PM PM PM PM PM     
  E  E  E  E  E  E  E  E     E  E  E  E  E  E  E  E   
--------------------------|--------------------------|
--------------------------|--------------------------|
--L--7--------------------|-----------------------7--|
--L--7--------------------|-----------------------7--|
--L--5--5--5--5--5--5--5--|--5--5--5--5--5--5--5--5--|
--------------------------|--------------------------|
--------------------------|--------------------------|


        PM PM PM PM PM PM    PM PM PM PM PM PM PM     
  E  E  E  E  E  E  E  E     E  E  E  E  E  E  E  E   
--------------------------|--------------------------|
--------------------------|--------------------------|
--L--7--------------------|--------------------------|
--L--7--------------------|-----------------------8--|
--L--5--5--5--5--5--5--5--|--5--5--5--5--5--5--5--8--|
--------------------------|-----------------------6--|
--------------------------|--------------------------|


     PM PM PM PM PM PM                                                 
  E  E  E  E  E  E  E  E     E  E  E  E  H           W                 
--------------------------|-----------------------|-------------------|
--------------------------|-----------------------|-------------------|
--------------------------|-----------------------|-------------------|
--L--------------------7--|-----7-----7-----------|-------------------|
--L--------------------7--|-----7-----7-----------|-------------------|
--L--6--6--6--6--6--6--5--|-----5-----5-----------|-------------------|
--------------------------|-----------------------|-------------------|


     PM PM PM PM PM PM PM PM PM PM PM PM PM PM  
  E  S  S  S  S  S  S  S  S  S  S  S  S  S  S   
-----------------------------------------------|
-----------------------------------------------|
--7--------------------------------------------|
--7--------------------------------------------|
--5--5--5--5--5--5--5--5--5--5--5--5--5--5--5--|
-----------------------------------------------|
-----------------------------------------------|


  PM PM PM PM PM PM PM PM PM PM PM PM PM PM PM PM                      
  S  S  S  S  S  S  S  S  S  S  S  S  S  S  S  S     W                 
--------------------------------------------------|-------------------|
--------------------------------------------------|-------------------|
--------------------------------------------------|-------------------|
--------------------------------------------------|--8----------------|
--5--5--5--5--5--5--5--5--5--5--5--5--5--5--5--5--|--8----------------|
--------------------------------------------------|--6----------------|
--------------------------------------------------|-------------------|


                         PM PM PM PM PM PM PM PM PM PM PM PM PM PM  
  W                   E  S  S  S  S  S  S  S  S  S  S  S  S  S  S   
-------------------|-----------------------------------------------|
-------------------|-----------------------------------------------|
--7----------------|--7--------------------------------------------|
--7----------------|--7--------------------------------------------|
--5----------------|--5--5--5--5--5--5--5--5--5--5--5--5--5--5--5--|
-------------------|-----------------------------------------------|
-------------------|-----------------------------------------------|


  PM PM PM PM PM PM PM PM PM PM PM PM PM PM PM PM                      
  S  S  S  S  S  S  S  S  S  S  S  S  S  S  S  S     W                 
--------------------------------------------------|-------------------|
--------------------------------------------------|-------------------|
--------------------------------------------------|-------------------|
--------------------------------------------------|--8----------------|
--5--5--5--5--5--5--5--5--5--5--5--5--5--5--5--5--|--8----------------|
--------------------------------------------------|--6----------------|
--------------------------------------------------|-------------------|


                                    PM PM                      
  H        H           H.           E  E     W                 
--------------------|---------------------|-------------------|
--------------------|---------------------|-------------------|
--7--------5--------|--7------------------|--2----------------|
--7--------5--------|--7------------7--7--|--2----------------|
--5--------3--------|--5------------5--5--|--0----------------|
--------------------|---------------------|-------------------|
--------------------|---------------------|-------------------|


  W                   H        H         
-------------------|--------------------|
-------------------|--------------------|
--3----------------|-----------5--------|
--3----------------|--3--------5--------|
--1----------------|--3--------3--------|
-------------------|--1-----------------|
-------------------|--------------------|


     PM PM PM PM PM PM PM PM PM PM PM PM PM PM  
  E  S  S  S  S  S  S  S  S  S  S  S  S  S  S   
-----------------------------------------------|
-----------------------------------------------|
--7--------------------------------------------|
--7--------------------------------------------|
--5--5--5--5--5--5--5--5--5--5--5--5--5--5--5--|
-----------------------------------------------|
-----------------------------------------------|


     PM PM PM PM PM PM PM PM PM PM PM PM PM PM  
  E  S  S  S  S  S  S  S  S  S  S  S  S  S  S   
-----------------------------------------------|
-----------------------------------------------|
--2--------------------------------------------|
--2--------------------------------------------|
--0--0--0--0--0--0--0--0--0--0--0--0--0--0--0--|
-----------------------------------------------|
-----------------------------------------------|


     PM PM PM PM PM PM PM PM PM PM PM PM PM PM                       
  E  S  S  S  S  S  S  S  S  S  S  S  S  S  S     H        H         
-----------------------------------------------|--------------------|
-----------------------------------------------|--------------------|
--3--------------------------------------------|-----------5--------|
--3--------------------------------------------|--3--------5--------|
--1--1--1--1--1--1--1--1--1--1--1--1--1--1--1--|--3--------3--------|
-----------------------------------------------|--1-----------------|
-----------------------------------------------|--------------------|


                                             PM PM   PM PM         
  Q    H.              Q    Q    H           E  Q    E  E  Q.      
--------------------|---------------------|-----------------------|
--------------------|---------------------|-----------------------|
--------------------|-------5-------------|-----------------------|
--3-----------------|--3----5-------------|--3--3----3--3---------|
--3-----------------|--3----3-------------|--1--1----1--1---------|
--1-----------------|--1------------------|-----------------------|
--------------------|---------------------|-----------------------|


  PM PM   PM PM                                                              
  E  Q    E  E  Q.        Q    H.              W                             
-----------------------|--------------------|-------------------|-----|-----|
-----------------------|--------------------|-------------------|-----|-----|
-----------------------|--2-----------------|-------------------|-----|-----|
--3--3----3--3---------|--2-----------------|-------------------|-----|-----|
--1--1----1--1---------|--0-----------------|-------------------|-----|-----|
-----------------------|--------------------|-------------------|-----|-----|
-----------------------|--------------------|-------------------|-----|-----|


-----|-----|-----|-----|-----|-----|-----|-----|-----|-----|-----|-----|-----|
-----|-----|-----|-----|-----|-----|-----|-----|-----|-----|-----|-----|-----|
-----|-----|-----|-----|-----|-----|-----|-----|-----|-----|-----|-----|-----|
-----|-----|-----|-----|-----|-----|-----|-----|-----|-----|-----|-----|-----|
-----|-----|-----|-----|-----|-----|-----|-----|-----|-----|-----|-----|-----|
-----|-----|-----|-----|-----|-----|-----|-----|-----|-----|-----|-----|-----|
-----|-----|-----|-----|-----|-----|-----|-----|-----|-----|-----|-----|-----|


-----|-----|-----|-----|-----|-----|-----|-----|-----|-----|-----|-----|-----|
-----|-----|-----|-----|-----|-----|-----|-----|-----|-----|-----|-----|-----|
-----|-----|-----|-----|-----|-----|-----|-----|-----|-----|-----|-----|-----|
-----|-----|-----|-----|-----|-----|-----|-----|-----|-----|-----|-----|-----|
-----|-----|-----|-----|-----|-----|-----|-----|-----|-----|-----|-----|-----|
-----|-----|-----|-----|-----|-----|-----|-----|-----|-----|-----|-----|-----|
-----|-----|-----|-----|-----|-----|-----|-----|-----|-----|-----|-----|-----|


-----|-----|-----|-----|-----|-----|-----|-----|-----|-----|-----|-----|-----|
-----|-----|-----|-----|-----|-----|-----|-----|-----|-----|-----|-----|-----|
-----|-----|-----|-----|-----|-----|-----|-----|-----|-----|-----|-----|-----|
-----|-----|-----|-----|-----|-----|-----|-----|-----|-----|-----|-----|-----|
-----|-----|-----|-----|-----|-----|-----|-----|-----|-----|-----|-----|-----|
-----|-----|-----|-----|-----|-----|-----|-----|-----|-----|-----|-----|-----|
-----|-----|-----|-----|-----|-----|-----|-----|-----|-----|-----|-----|-----|


-----|-----|-----|-----|-----|-----|-----|-----|-----|-----|-----|-----|-----|
-----|-----|-----|-----|-----|-----|-----|-----|-----|-----|-----|-----|-----|
-----|-----|-----|-----|-----|-----|-----|-----|-----|-----|-----|-----|-----|
-----|-----|-----|-----|-----|-----|-----|-----|-----|-----|-----|-----|-----|
-----|-----|-----|-----|-----|-----|-----|-----|-----|-----|-----|-----|-----|
-----|-----|-----|-----|-----|-----|-----|-----|-----|-----|-----|-----|-----|
-----|-----|-----|-----|-----|-----|-----|-----|-----|-----|-----|-----|-----|


              H        H           H        H           H        H         
-----|-----|--------------------|--------------------|--------------------|
-----|-----|--------------------|--------------------|--------------------|
-----|-----|--7-----------------|--5--------7--------|--7-----------------|
-----|-----|--7--------8--------|--5--------7--------|--7--------8--------|
-----|-----|--5--------8--------|--3--------5--------|--5--------8--------|
-----|-----|-----------6--------|--------------------|-----------6--------|
-----|-----|--------------------|--------------------|--------------------|


   H         H           H        H           H        H         
----------------------|--------------------|--------------------|
----------------------|--------------------|--------------------|
--10------------------|--7-----------------|--5--------7--------|
--10--------10--------|--7--------8--------|--5--------7--------|
---8--------10--------|--5--------8--------|--3--------5--------|
-------------8--------|-----------6--------|--------------------|
----------------------|--------------------|--------------------|


       PM                     PM                                    
  Q    E  E  H           Q    E  E  H           E  Q.     H         
----------------------|----------------------|---------------------|
----------------------|----------------------|---------------------|
----------------------|--5-------5--L--------|---------------------|
--3-------3--L--------|--5----5--5--L--------|--3------------------|
--3----3--3--L--------|--3----3--3--L--------|--3------------------|
--1----1--1--L--------|----------------------|--1------------------|
----------------------|----------------------|---------------------|


     PM PM PM PM PM                                                            
  E  E  E  E  E  E   Q       E  Q.     H                                       
--------------------------|---------------------|-----|-----|-----|-----|-----|
--------------------------|---------------------|-----|-----|-----|-----|-----|
--------------------------|---------------------|-----|-----|-----|-----|-----|
--------------------10----|--8------------------|-----|-----|-----|-----|-----|
-----8--7--5--7--8--10----|--8------------------|-----|-----|-----|-----|-----|
-----6--5--3--5--6---8----|--6------------------|-----|-----|-----|-----|-----|
--------------------------|---------------------|-----|-----|-----|-----|-----|


-----|-----|-----|-----|-----|-----|-----|-----|-----|-----|-----|-----|-----|
-----|-----|-----|-----|-----|-----|-----|-----|-----|-----|-----|-----|-----|
-----|-----|-----|-----|-----|-----|-----|-----|-----|-----|-----|-----|-----|
-----|-----|-----|-----|-----|-----|-----|-----|-----|-----|-----|-----|-----|
-----|-----|-----|-----|-----|-----|-----|-----|-----|-----|-----|-----|-----|
-----|-----|-----|-----|-----|-----|-----|-----|-----|-----|-----|-----|-----|
-----|-----|-----|-----|-----|-----|-----|-----|-----|-----|-----|-----|-----|


-----|-----|-----|-----|-----|-----|-----|-----|-----|-----|-----|-----|-----|
-----|-----|-----|-----|-----|-----|-----|-----|-----|-----|-----|-----|-----|
-----|-----|-----|-----|-----|-----|-----|-----|-----|-----|-----|-----|-----|
-----|-----|-----|-----|-----|-----|-----|-----|-----|-----|-----|-----|-----|
-----|-----|-----|-----|-----|-----|-----|-----|-----|-----|-----|-----|-----|
-----|-----|-----|-----|-----|-----|-----|-----|-----|-----|-----|-----|-----|
-----|-----|-----|-----|-----|-----|-----|-----|-----|-----|-----|-----|-----|


-----|-----|-----|-----|-----|-----|-----|-----|-----|-----|-----|-----|-----|
-----|-----|-----|-----|-----|-----|-----|-----|-----|-----|-----|-----|-----|
-----|-----|-----|-----|-----|-----|-----|-----|-----|-----|-----|-----|-----|
-----|-----|-----|-----|-----|-----|-----|-----|-----|-----|-----|-----|-----|
-----|-----|-----|-----|-----|-----|-----|-----|-----|-----|-----|-----|-----|
-----|-----|-----|-----|-----|-----|-----|-----|-----|-----|-----|-----|-----|
-----|-----|-----|-----|-----|-----|-----|-----|-----|-----|-----|-----|-----|


-----|-----|-----|-----|-----|-----|-----|-----|-----|-----|-----|-----|
-----|-----|-----|-----|-----|-----|-----|-----|-----|-----|-----|-----|
-----|-----|-----|-----|-----|-----|-----|-----|-----|-----|-----|-----|
-----|-----|-----|-----|-----|-----|-----|-----|-----|-----|-----|-----|
-----|-----|-----|-----|-----|-----|-----|-----|-----|-----|-----|-----|
-----|-----|-----|-----|-----|-----|-----|-----|-----|-----|-----|-----|
-----|-----|-----|-----|-----|-----|-----|-----|-----|-----|-----|-----|


  H        H           H        H           H        H         
--------------------|--------------------|--------------------|
--------------------|--------------------|--------------------|
--7-----------------|--5--------7--------|--7-----------------|
--7--------8--------|--5--------7--------|--7--------8--------|
--5--------8--------|--3--------5--------|--5--------8--------|
-----------6--------|--------------------|-----------6--------|
--------------------|--------------------|--------------------|


   H         H           H        H           H        H         
----------------------|--------------------|--------------------|
----------------------|--------------------|--------------------|
--10------------------|--7-----------------|--5--------7--------|
--10--------10--------|--7--------8--------|--5--------7--------|
---8--------10--------|--5--------8--------|--3--------5--------|
-------------8--------|-----------6--------|--------------------|
----------------------|--------------------|--------------------|


       PM                     PM                                    
  Q    E  E  H           Q    E  E  H           E  Q.     H         
----------------------|----------------------|---------------------|
----------------------|----------------------|---------------------|
----------------------|--5-------5--L--------|---------------------|
--3-------3--L--------|--5----5--5--L--------|--3------------------|
--3----3--3--L--------|--3----3--3--L--------|--3------------------|
--1----1--1--L--------|----------------------|--1------------------|
----------------------|----------------------|---------------------|


     PM PM PM PM PM                                                     
  E  E  E  E  E  E   Q       E  Q.     H           Q    Q    Q    Q     
--------------------------|---------------------|----------------------|
--------------------------|---------------------|----------------------|
--------------------------|--3------------------|--3----2----3----5----|
--------------------10----|--3------------------|--3----2----3----5----|
-----8--7--5--7--8--10----|--1------------------|--1----0----1----3----|
-----6--5--3--5--6---8----|---------------------|----------------------|
--------------------------|---------------------|----------------------|


       PM PM PM PM PM PM    PM PM PM PM PM                              
  Q    E  E  E  E  E  E     E  E  E  E  E  Q.                           
-------------------------|------------------------||---------|---------|
-------------------------|------------------------||---------|---------|
--2----------------------|------------------------||---------|---------|
--2----2--2--2--2--2--2--|--2--2--2--2--2---------||---------|---------|
--0----0--0--0--0--0--0--|--0--0--0--0--0---------||---------|---------|
-------------------------|------------------------||---------|---------|
-------------------------|------------------------||---------|---------|


---------|---------|---------|---------|---------|----------||
---------|---------|---------|---------|---------|----------||
---------|---------|---------|---------|---------|----------||
---------|---------|---------|---------|---------|----------||
---------|---------|---------|---------|---------|----------||
---------|---------|---------|---------|---------|----------||
---------|---------|---------|---------|---------|----------||


  E  Q.     H           W                   E  Q.     H         
---------------------|-------------------|---------------------|
---------------------|-------------------|---------------------|
--7------------------|-------------------|--7------------------|
--7------------------|-------------------|--7------------------|
--5------------------|-------------------|--5------------------|
---------------------|-------------------|---------------------|
---------------------|-------------------|---------------------|


                                                             PM     
  H        E  Q    E     E  Q.     H           H        Q    E  E   
----------------------|---------------------|----------------------|
----------------------|---------------------|----------------------|
--------------5----7--|--7------------------|----------------------|
--------------5----7--|--7------------------|-------------------8--|
--------------3----5--|--5------------------|----------------8--8--|
----------------------|---------------------|----------------6--6--|
----------------------|---------------------|----------------------|


                                     PM             PM PM PM    PM     
  H        Q.     E     H.           E  E     E  E  E  E  E  E  E  E   
---------------------|---------------------|--------------------------|
---------------------|---------------------|--------------------------|
------------------5--|--L------------------|--------------------------|
--L--------L------5--|--L------------0--3--|--L--3--3--3--3--2--2--0--|
--L--------L------3--|--L------------0--5--|--L--5--5--5--5--3--3--1--|
--L--------L---------|---------------------|--------------------------|
---------------------|---------------------|--------------------------|


        PM PM PM PM PM PM         PM PM       PM             PM PM PM PM PM PM  
  E  E  E  E  E  E  E  E     Q    E  E  E  E  E  E     E  E  E  E  E  E  E  E   
--------------------------|-------------------------|--------------------------|
--------------------------|-------------------------|--------------------------|
--------------------------|-------------------------|--------------------------|
--L--0--0--0--0--0--0--0--|--2----2--2--3--2--2--3--|--L--3--3--3--3--3--3--3--|
--L--1--1--1--1--1--1--1--|--3----3--3--3--3--3--5--|--L--5--5--5--5--5--5--5--|
--------------------------|-------------------------|--------------------------|
--------------------------|-------------------------|--------------------------|


       PM PM PM    PM             PM PM PM PM PM PM         PM PM       PM     
  Q    E  E  E  E  E  E     E  E  E  E  E  E  E  E     Q    E  E  E  E  E  E   
-------------------------|--------------------------|-------------------------|
-------------------------|--------------------------|-------------------------|
-------------------------|--------------------------|----------------------2--|
--3----3--3--3--2--2--0--|--L--0--0--0--0--0--0--0--|--2----2--2--2--3--2--2--|
--5----5--5--5--3--3--1--|--L--1--1--1--1--1--1--1--|--3----3--3--3--3--3--0--|
-------------------------|--------------------------|-------------------------|
-------------------------|--------------------------|-------------------------|


        PM                      PM PM PM    PM             PM PM PM PM PM PM  
  E  E  E  E  Q    Q       Q    E  E  E  E  E  E     E  E  E  E  E  E  E  E   
------------------------|-------------------------|--------------------------|
------------------------|-------------------------|--------------------------|
--L--2-----5--L----5----|-------------------------|--------------------------|
--L--2--2--5--L----5----|--3----3--3--3--2--2--0--|--L--0--0--0--0--0--0--0--|
--L--0--0--3--L----3----|--5----5--5--5--3--3--1--|--L--1--1--1--1--1--1--1--|
------------------------|-------------------------|--------------------------|
------------------------|-------------------------|--------------------------|


       PM PM       PM             PM PM PM PM PM PM         PM PM PM    PM     
  Q    E  E  E  E  E  E     E  E  E  E  E  E  E  E     Q    E  E  E  E  E  E   
-------------------------|--------------------------|-------------------------|
-------------------------|--------------------------|-------------------------|
-------------------------|--------------------------|-------------------------|
--2----2--2--3--2--2-----|-----3--3--3--3--3--3--3--|--3----3--3--3--2--2--0--|
--3----3--3--3--3--3--5--|--L-----5--5--5--5--5--5--|--5----5--5--5--3--3--1--|
-------------------------|--------------------------|-------------------------|
-------------------------|--------------------------|-------------------------|


        PM PM PM PM PM PM       PM PM    PM PM    PM  
  E  E  E  E  E  E  E  E     E  E  E  E  E  E  E  E   
--------------------------|--------------------------|
--------------------------|--------------------------|
--------------------------|--5--------5--------5-----|
--L--0--0--0--0--0--0--0--|--5--5--5--5--5--5--5--5--|
--L--1--1--1--1--1--1--1--|--3--3--3--3--3--3--3--3--|
--------------------------|--------------------------|
--------------------------|--------------------------|


     PM PM    PM PM    PM                                                  
  E  E  E  E  E  E  E  E                                                   
--------------------------|-----------|-----------|-----------|-----------|
--------------------------|-----------|-----------|-----------|-----------|
--5--------5--------5-----|-----------|-----------|-----------|-----------|
--5--5--5--5--5--5--5--5--|-----------|-----------|-----------|-----------|
--3--3--3--3--3--3--3--3--|-----------|-----------|-----------|-----------|
--------------------------|-----------|-----------|-----------|-----------|
--------------------------|-----------|-----------|-----------|-----------|


                                                  PM PM PM PM            
                                                  E  E  E  E  E  Q.      
-----------|-----------|-----------|-----------|------------------------|
-----------|-----------|-----------|-----------|------------------------|
-----------|-----------|-----------|-----------|------------------------|
-----------|-----------|-----------|-----------|--------------2---------|
-----------|-----------|-----------|-----------|--2--2--2--2--2---------|
-----------|-----------|-----------|-----------|--0--0--0--0--0---------|
-----------|-----------|-----------|-----------|------------------------|


  PM PM PM PM              PM PM PM PM              PM PM    PM            
  E  E  E  E  E  Q.        E  E  E  E  E  Q.        E  E  E  E  E  Q.      
------------------------|------------------------|------------------------|
------------------------|------------------------|------------------------|
--------------5---------|--------------7---------|--------9-----9--7------|
--5--5--5--5--5---------|--7--7--7--7--7---------|--------9-----9--7------|
--3--3--3--3--3---------|--5--5--5--5--5---------|--------7-----7--5------|
------------------------|------------------------|--0--0-----0------------|
------------------------|------------------------|------------------------|


  PM PM PM PM              PM PM PM PM              PM PM PM PM            
  E  E  E  E  E  Q.        E  E  E  E  E  Q.        E  E  E  E  E  Q.      
------------------------|------------------------|------------------------|
------------------------|------------------------|------------------------|
------------------------|--------------5---------|--------------7---------|
--------------2---------|--5--5--5--5--5---------|--7--7--7--7--7---------|
--2--2--2--2--2---------|--3--3--3--3--3---------|--5--5--5--5--5---------|
--0--0--0--0--0---------|------------------------|------------------------|
------------------------|------------------------|------------------------|


  PM PM      PM PM              PM PM PM    PM             PM PM PM PM PM PM  
  E  E  Q    E  E  Q       Q    E  E  E  E  E  E     E  E  E  E  E  E  E  E   
------------------------|-------------------------|--------------------------|
------------------------|-------------------------|--------------------------|
--------4----------7----|-------------------------|--------------------------|
--4--4--4----7--7--7----|--3----3--3--3--2--2--0--|--L--0--0--0--0--0--0--0--|
--2--2--2----5--5--5----|--5----5--5--5--3--3--1--|--L--1--1--1--1--1--1--1--|
------------------------|-------------------------|--------------------------|
------------------------|-------------------------|--------------------------|


       PM PM       PM             PM PM PM PM PM PM         PM PM PM    PM     
  Q    E  E  E  E  E  E     E  E  E  E  E  E  E  E     Q    E  E  E  E  E  E   
-------------------------|--------------------------|-------------------------|
-------------------------|--------------------------|-------------------------|
-------------------------|--------------------------|-------------------------|
--2----2--2--3--2--2--3--|--L--3--3--3--3--3--3--3--|--3----3--3--3--2--2--0--|
--3----3--3--3--3--3--5--|--L--5--5--5--5--5--5--5--|--5----5--5--5--3--3--1--|
-------------------------|--------------------------|-------------------------|
-------------------------|--------------------------|-------------------------|


        PM PM PM PM PM PM         PM PM       PM             PM               
  E  E  E  E  E  E  E  E     Q    E  E  E  E  E  E     E  E  E  E  Q    Q     
--------------------------|-------------------------|------------------------|
--------------------------|-------------------------|------------------------|
--------------------------|----------------------2--|--L--2-----5--L----5----|
--L--0--0--0--0--0--0--0--|--2----2--2--2--3--2--2--|--L--2--2--5--L----5----|
--L--1--1--1--1--1--1--1--|--3----3--3--3--3--3--0--|--L--0--0--3--L----3----|
--------------------------|-------------------------|------------------------|
--------------------------|-------------------------|------------------------|


       PM PM PM    PM             PM PM PM PM PM PM         PM PM       PM     
  Q    E  E  E  E  E  E     E  E  E  E  E  E  E  E     Q    E  E  E  E  E  E   
-------------------------|--------------------------|-------------------------|
-------------------------|--------------------------|-------------------------|
-------------------------|--------------------------|-------------------------|
--3----3--3--3--2--2--0--|--L--0--0--0--0--0--0--0--|--2----2--2--3--2--2-----|
--5----5--5--5--3--3--1--|--L--1--1--1--1--1--1--1--|--3----3--3--3--3--3--5--|
-------------------------|--------------------------|-------------------------|
-------------------------|--------------------------|-------------------------|


        PM PM PM PM PM PM         PM PM PM    PM             PM PM PM PM PM PM  
  E  E  E  E  E  E  E  E     Q    E  E  E  E  E  E     E  E  E  E  E  E  E  E   
--------------------------|-------------------------|--------------------------|
--------------------------|-------------------------|--------------------------|
--------------------------|-------------------------|--------------------------|
-----3--3--3--3--3--3--3--|--3----3--3--3--2--2--0--|--L--0--0--0--0--0--0--0--|
--L-----5--5--5--5--5--5--|--5----5--5--5--3--3--1--|--L--1--1--1--1--1--1--1--|
--------------------------|-------------------------|--------------------------|
--------------------------|-------------------------|--------------------------|


     PM PM    PM PM    PM       PM PM    PM PM    PM                          
  E  E  E  E  E  E  E  E     E  E  E  E  E  E  E  E                           
--------------------------|--------------------------|-----|-----|-----|-----|
--------------------------|--------------------------|-----|-----|-----|-----|
--5--------5--------5-----|--5--------5--------5-----|-----|-----|-----|-----|
--5--5--5--5--5--5--5--5--|--5--5--5--5--5--5--5--5--|-----|-----|-----|-----|
--3--3--3--3--3--3--3--3--|--3--3--3--3--3--3--3--3--|-----|-----|-----|-----|
--------------------------|--------------------------|-----|-----|-----|-----|
--------------------------|--------------------------|-----|-----|-----|-----|


  E  H.           E     W                   E  E  H.                        
---------------------|-------------------|---------------------|-----|-----|
---------------------|-------------------|---------------------|-----|-----|
---------------------|-------------------|---------------------|-----|-----|
--2---------------2--|-------------------|--2------------------|-----|-----|
--2---------------2--|-------------------|--2------------------|-----|-----|
--0---------------0--|-------------------|--0------------------|-----|-----|
---------------------|-------------------|---------------------|-----|-----|


     PM PM PM PM PM PM PM PM PM PM PM PM PM PM  
  E  S  S  S  S  S  S  S  S  S  S  S  S  S  S   
-----------------------------------------------|
-----------------------------------------------|
--9--------------------------------------------|
--9--------------------------------------------|
--7--7--7--7--7--7--7--7--7--7--7--7--7--7--7--|
-----------------------------------------------|
-----------------------------------------------|


  PM PM    PM PM PM PM              
  S  S  E  S  S  S  S   Q     Q     
-----------------------------------|
-----------------------------------|
--------9--------------------------|
--------9--------------10----10----|
--7--7--7--7--7--7--7--10----10----|
------------------------8-----8----|
-----------------------------------|


     PM PM PM PM    PM PM PM PM PM PM PM PM  
  E  S  S  S  S  E  S  S  S  S  S  S  S  S   
--------------------------------------------|
--------------------------------------------|
--9--------------9--------------------------|
--9--------------9--------------------------|
--7--7--7--7--7--7--7--7--7--7--7--7--7--7--|
--------------------------------------------|
--------------------------------------------|


  PM PM    PM PM PM PM              
  S  S  E  S  S  S  S   Q     Q     
-----------------------------------|
-----------------------------------|
--------9--------------------------|
--------9--------------10----10----|
--7--7--7--7--7--7--7--10----10----|
------------------------8-----8----|
-----------------------------------|


     PM PM PM PM PM PM PM PM PM PM PM PM PM PM  
  E  S  S  S  S  S  S  S  S  S  S  S  S  S  S   
-----------------------------------------------|
-----------------------------------------------|
--9--------------------------------------------|
--9--------------------------------------------|
--7--7--7--7--7--7--7--7--7--7--7--7--7--7--7--|
-----------------------------------------------|
-----------------------------------------------|


  PM PM    PM PM PM PM              
  S  S  E  S  S  S  S   Q     Q     
-----------------------------------|
-----------------------------------|
--------9--------------------------|
--------9--------------10----10----|
--7--7--7--7--7--7--7--10----10----|
------------------------8-----8----|
-----------------------------------|


     PM PM PM PM    PM PM PM PM PM PM PM PM  
  E  S  S  S  S  E  S  S  S  S  S  S  S  S   
--------------------------------------------|
--------------------------------------------|
--9--------------9--------------------------|
--9--------------9--------------------------|
--7--7--7--7--7--7--7--7--7--7--7--7--7--7--|
--------------------------------------------|
--------------------------------------------|


  PM PM    PM PM PM PM              
  S  S  E  S  S  S  S   Q     Q     
-----------------------------------|
-----------------------------------|
--------9--------------------------|
--------9--------------10----10----|
--7--7--7--7--7--7--7--10----10----|
------------------------8-----8----|
-----------------------------------|


     PM PM PM PM PM PM PM PM PM PM PM PM PM PM  
  E  S  S  S  S  S  S  S  S  S  S  S  S  S  S   
-----------------------------------------------|
-----------------------------------------------|
--7--------------------------------------------|
--7--------------------------------------------|
--5--5--5--5--5--5--5--5--5--5--5--5--5--5--5--|
-----------------------------------------------|
-----------------------------------------------|


  PM PM    PM PM PM PM                 PM PM PM PM    PM PM PM PM PM PM PM PM  
  S  S  E  S  S  S  S  Q    Q       E  S  S  S  S  E  S  S  S  S  S  S  S  S   
---------------------------------|--------------------------------------------|
---------------------------------|--------------------------------------------|
--------7------------------------|--7--------------7--------------------------|
--------7--------------8----8----|--7--------------7--------------------------|
--5--5--5--5--5--5--5--8----8----|--5--5--5--5--5--5--5--5--5--5--5--5--5--5--|
-----------------------6----6----|--------------------------------------------|
---------------------------------|--------------------------------------------|


  PM PM    PM PM PM PM            
  S  S  E  S  S  S  S  Q    Q     
---------------------------------|
---------------------------------|
--------7------------------------|
--------7--------------8----8----|
--5--5--5--5--5--5--5--8----8----|
-----------------------6----6----|
---------------------------------|


     PM PM PM PM PM PM PM PM PM PM PM PM PM PM  
  E  S  S  S  S  S  S  S  S  S  S  S  S  S  S   
-----------------------------------------------|
-----------------------------------------------|
--7--------------------------------------------|
--7--------------------------------------------|
--5--5--5--5--5--5--5--5--5--5--5--5--5--5--5--|
-----------------------------------------------|
-----------------------------------------------|


  PM PM    PM PM PM PM                 PM PM PM PM    PM PM PM PM PM PM PM PM  
  S  S  E  S  S  S  S  Q    Q       E  S  S  S  S  E  S  S  S  S  S  S  S  S   
---------------------------------|--------------------------------------------|
---------------------------------|--------------------------------------------|
--------7------------------------|--7--------------7--------------------------|
--------7--------------8----8----|--7--------------7--------------------------|
--5--5--5--5--5--5--5--8----8----|--5--5--5--5--5--5--5--5--5--5--5--5--5--5--|
-----------------------6----6----|--------------------------------------------|
---------------------------------|--------------------------------------------|


  PM PM    PM PM PM PM            
  S  S  E  S  S  S  S  Q    Q     
---------------------------------|
---------------------------------|
--------7------------------------|
--------7--------------8----8----|
--5--5--5--5--5--5--5--8----8----|
-----------------------6----6----|
---------------------------------|


     PM PM PM PM PM PM PM PM PM PM PM PM PM PM  
  E  S  S  S  S  S  S  S  S  S  S  S  S  S  S   
-----------------------------------------------|
-----------------------------------------------|
--9--------------------------------------------|
--9--------------------------------------------|
--7--7--7--7--7--7--7--7--7--7--7--7--7--7--7--|
-----------------------------------------------|
-----------------------------------------------|


  PM PM    PM PM PM PM              
  S  S  E  S  S  S  S   Q     Q     
-----------------------------------|
-----------------------------------|
--------9--------------------------|
--------9--------------10----10----|
--7--7--7--7--7--7--7--10----10----|
------------------------8-----8----|
-----------------------------------|


     PM PM PM PM    PM PM PM PM PM PM PM PM  
  E  S  S  S  S  E  S  S  S  S  S  S  S  S   
--------------------------------------------|
--------------------------------------------|
--9--------------9--------------------------|
--9--------------9--------------------------|
--7--7--7--7--7--7--7--7--7--7--7--7--7--7--|
--------------------------------------------|
--------------------------------------------|


  PM PM    PM PM PM PM              
  S  S  E  S  S  S  S   Q     Q     
-----------------------------------|
-----------------------------------|
--------9--------------------------|
--------9--------------10----10----|
--7--7--7--7--7--7--7--10----10----|
------------------------8-----8----|
-----------------------------------|


     PM PM PM PM PM PM PM PM PM PM PM PM PM PM  
  E  S  S  S  S  S  S  S  S  S  S  S  S  S  S   
-----------------------------------------------|
-----------------------------------------------|
--9--------------------------------------------|
--9--------------------------------------------|
--7--7--7--7--7--7--7--7--7--7--7--7--7--7--7--|
-----------------------------------------------|
-----------------------------------------------|


  PM PM    PM PM PM PM              
  S  S  E  S  S  S  S   Q     Q     
-----------------------------------|
-----------------------------------|
--------9--------------------------|
--------9--------------10----10----|
--7--7--7--7--7--7--7--10----10----|
------------------------8-----8----|
-----------------------------------|


     PM PM PM PM    PM PM PM PM PM PM PM PM  
  E  S  S  S  S  E  S  S  S  S  S  S  S  S   
--------------------------------------------|
--------------------------------------------|
--9--------------9--------------------------|
--9--------------9--------------------------|
--7--7--7--7--7--7--7--7--7--7--7--7--7--7--|
--------------------------------------------|
--------------------------------------------|


  PM PM    PM PM PM PM                     PM        PM PM  
  S  S  E  S  S  S  S   Q     Q       Q    E  Q.     E  E   
-----------------------------------|-----------------------|
-----------------------------------|-----------------------|
--------9--------------------------|--9-------7------------|
--------9--------------10----10----|--9----9--7------7--7--|
--7--7--7--7--7--7--7--10----10----|--7----7--5------5--5--|
------------------------8-----8----|-----------------------|
-----------------------------------|-----------------------|


       PM        PM PM                                                       
  Q    E  Q.     E  E     Q    E  Q.     Q       H        E  Q.              
-----------------------|----------------------|---------------------|-------|
-----------------------|----------------------|---------------------|-------|
--5--------------------|----------------------|---------------------|-------|
--5----5--5------------|--7-------5------7----|--9--------9---------|-------|
--3----3--5------5--5--|--7----7--5------7----|--9--------9---------|-------|
----------3------3--3--|--5----5--3------5----|--7--------7---------|-------|
-----------------------|----------------------|---------------------|-------|


-------|-------|-------|-------|-------|-------|-------|-------|-------|-------|
-------|-------|-------|-------|-------|-------|-------|-------|-------|-------|
-------|-------|-------|-------|-------|-------|-------|-------|-------|-------|
-------|-------|-------|-------|-------|-------|-------|-------|-------|-------|
-------|-------|-------|-------|-------|-------|-------|-------|-------|-------|
-------|-------|-------|-------|-------|-------|-------|-------|-------|-------|
-------|-------|-------|-------|-------|-------|-------|-------|-------|-------|


-------|-------|-------|-------|-------|-------|-------|-------|-------|-------|
-------|-------|-------|-------|-------|-------|-------|-------|-------|-------|
-------|-------|-------|-------|-------|-------|-------|-------|-------|-------|
-------|-------|-------|-------|-------|-------|-------|-------|-------|-------|
-------|-------|-------|-------|-------|-------|-------|-------|-------|-------|
-------|-------|-------|-------|-------|-------|-------|-------|-------|-------|
-------|-------|-------|-------|-------|-------|-------|-------|-------|-------|


-------|-------|-------|-------|-------|-------|-------|-------|-------|-------|
-------|-------|-------|-------|-------|-------|-------|-------|-------|-------|
-------|-------|-------|-------|-------|-------|-------|-------|-------|-------|
-------|-------|-------|-------|-------|-------|-------|-------|-------|-------|
-------|-------|-------|-------|-------|-------|-------|-------|-------|-------|
-------|-------|-------|-------|-------|-------|-------|-------|-------|-------|
-------|-------|-------|-------|-------|-------|-------|-------|-------|-------|


          E  E  H.              H        E  Q.        E  E  H.            
-------|---------------------|---------------------|---------------------|
-------|---------------------|---------------------|---------------------|
-------|--2------------------|--------------2------|--7------------------|
-------|--2------------------|--------------2------|--7------------------|
-------|--0------------------|--------------0------|--5------------------|
-------|---------------------|---------------------|---------------------|
-------|---------------------|---------------------|---------------------|


  H        E  Q.        E  E  H.              H        E  Q.      
---------------------|---------------------|---------------------|
---------------------|---------------------|---------------------|
--------------7------|--5------------------|--------------2------|
--------------7------|--5------------------|--------------2------|
--------------5------|--3------------------|--------------0------|
---------------------|---------------------|---------------------|
---------------------|---------------------|---------------------|


  E  E  H.              W                   E  E  H.            
---------------------|-------------------|---------------------|
---------------------|-------------------|---------------------|
--7------------------|-------------------|--2------------------|
--7------------------|-------------------|--2------------------|
--5------------------|-------------------|--0------------------|
---------------------|-------------------|---------------------|
---------------------|-------------------|---------------------|


  H.           Q       E  E  H.              H.           Q     
--------------------|---------------------|--------------------|
--------------------|---------------------|--------------------|
---------------2----|--7------------------|---------------5----|
---------------2----|--7------------------|---------------5----|
---------------0----|--5------------------|---------------3----|
--------------------|---------------------|--------------------|
--------------------|---------------------|--------------------|


  E  E  H.              E  E  H.              E  E  E  E  E  E  E  E   
---------------------|---------------------|--------------------------|
---------------------|---------------------|--------------------------|
--3------------------|--2------------------|--3-----3-----------3-----|
--3------------------|--2------------------|--3-----3-----5-----3-----|
--1------------------|--0------------------|--1-----1-----5-----1-----|
---------------------|---------------------|--------------3-----------|
---------------------|---------------------|--------------------------|


  PM PM PM PM      PM PM PM PM                      PM PM  
  S  S  S  S  Q    S  S  S  S  Q       H.           E  E   
------------------------------------|---------------------|
------------------------------------|---------------------|
--------------5----------------5----|--7------------------|
--------------5----------------5----|--7------------7--7--|
--3--3--3--3--3----3--3--3--3--3----|--5------------5--5--|
------------------------------------|---------------------|
------------------------------------|---------------------|


                 PM PM PM                                                  
  Q.     E   E   E  E  E                                                   
--------------------------|-------|-------|-------|-------|-------|-------|
--------------------------|-------|-------|-------|-------|-------|-------|
--7------7----------------|-------|-------|-------|-------|-------|-------|
--7------7--10--10--7--5--|-------|-------|-------|-------|-------|-------|
--5------5---8---8--5--3--|-------|-------|-------|-------|-------|-------|
--------------------------|-------|-------|-------|-------|-------|-------|
--------------------------|-------|-------|-------|-------|-------|-------|


-------|-------|-------|-------|-------|-------|-------|-------|-------|-------|
-------|-------|-------|-------|-------|-------|-------|-------|-------|-------|
-------|-------|-------|-------|-------|-------|-------|-------|-------|-------|
-------|-------|-------|-------|-------|-------|-------|-------|-------|-------|
-------|-------|-------|-------|-------|-------|-------|-------|-------|-------|
-------|-------|-------|-------|-------|-------|-------|-------|-------|-------|
-------|-------|-------|-------|-------|-------|-------|-------|-------|-------|


-------|-------|-------|-------|-------|-------|-------|-------|-------|-------|
-------|-------|-------|-------|-------|-------|-------|-------|-------|-------|
-------|-------|-------|-------|-------|-------|-------|-------|-------|-------|
-------|-------|-------|-------|-------|-------|-------|-------|-------|-------|
-------|-------|-------|-------|-------|-------|-------|-------|-------|-------|
-------|-------|-------|-------|-------|-------|-------|-------|-------|-------|
-------|-------|-------|-------|-------|-------|-------|-------|-------|-------|


-------|-------|-------|-------|-------|-------|-------|-------|-------|-------|
-------|-------|-------|-------|-------|-------|-------|-------|-------|-------|
-------|-------|-------|-------|-------|-------|-------|-------|-------|-------|
-------|-------|-------|-------|-------|-------|-------|-------|-------|-------|
-------|-------|-------|-------|-------|-------|-------|-------|-------|-------|
-------|-------|-------|-------|-------|-------|-------|-------|-------|-------|
-------|-------|-------|-------|-------|-------|-------|-------|-------|-------|


-------|-------|-----|-----|-----|-----|-----|-----|-----|-----|-----|-----|
-------|-------|-----|-----|-----|-----|-----|-----|-----|-----|-----|-----|
-------|-------|-----|-----|-----|-----|-----|-----|-----|-----|-----|-----|
-------|-------|-----|-----|-----|-----|-----|-----|-----|-----|-----|-----|
-------|-------|-----|-----|-----|-----|-----|-----|-----|-----|-----|-----|
-------|-------|-----|-----|-----|-----|-----|-----|-----|-----|-----|-----|
-------|-------|-----|-----|-----|-----|-----|-----|-----|-----|-----|-----|


                          E  Q.     H           E  Q.     H         
-----|-----|-----|-----|---------------------|---------------------|
-----|-----|-----|-----|---------------------|---------------------|
-----|-----|-----|-----|--5------------------|--5------------------|
-----|-----|-----|-----|--5------------------|--5------------------|
-----|-----|-----|-----|--3------------------|--3------------------|
-----|-----|-----|-----|---------------------|---------------------|
-----|-----|-----|-----|---------------------|---------------------|


     PM PM PM PM PM PM PM PM PM PM PM PM PM PM  
  E  S  S  S  S  S  S  S  S  S  S  S  S  S  S   
-----------------------------------------------|
-----------------------------------------------|
--7--------------------------------------------|
--7--------------------------------------------|
--5--5--5--5--5--5--5--5--5--5--5--5--5--5--5--|
-----------------------------------------------|
-----------------------------------------------|


  PM PM PM PM PM PM PM PM PM PM PM PM PM PM PM PM  
  S  S  S  S  S  S  S  S  S  S  S  S  S  S  S  S   
--------------------------------------------------|
--------------------------------------------------|
--------------------------------------------------|
--------------------------------------------------|
--5--5--5--5--5--5--5--5--5--5--5--5--5--5--5--5--|
--------------------------------------------------|
--------------------------------------------------|


     PM PM PM PM PM PM PM PM PM PM PM PM PM PM  
  E  S  S  S  S  S  S  S  S  S  S  S  S  S  S   
-----------------------------------------------|
-----------------------------------------------|
--7--------------------------------------------|
--7--------------------------------------------|
--5--5--5--5--5--5--5--5--5--5--5--5--5--5--5--|
-----------------------------------------------|
-----------------------------------------------|


  PM PM PM PM PM PM PM PM PM PM PM PM PM PM PM PM  
  S  S  S  S  S  S  S  S  S  S  S  S  S  S  S  S   
--------------------------------------------------|
--------------------------------------------------|
--------------------------------------------------|
--------------------------------------------------|
--5--5--5--5--5--5--5--5--5--5--5--5--5--5--5--5--|
--------------------------------------------------|
--------------------------------------------------|


     PM PM PM PM    PM PM PM PM PM PM PM PM  
  E  S  S  S  S  E  S  S  S  S  S  S  S  S   
--------------------------------------------|
--------------------------------------------|
--7--------------7--------------------------|
--7--------------7--------------------------|
--5--5--5--5--5--5--5--5--5--5--5--5--5--5--|
--------------------------------------------|
--------------------------------------------|


     PM PM    PM PM    PM PM    PM PM                                 
  E  S  S  E  S  S  E  S  S  E  S  S     S S S S E  E  S S S S E  E   
--------------------------------------|------------------------------|
--------------------------------------|------------------------------|
--7--------7--------7--------7--------|--7-7-7-7-7-----5-5-5-5-5-----|
--7--------7--------7--------7--------|--7-7-7-7-7-----5-5-5-5-5-----|
--5--5--5--5--5--5--5--5--5--5--5--5--|--5-5-5-5-5-----3-3-3-3-3-----|
--------------------------------------|------------------------------|
--------------------------------------|------------------------------|


                                                     PM   PM   PM   PM    
  S S S S E  E  S S S S E  E     W                   Q    Q    Q    Q     
------------------------------|-------------------|----------------------|
------------------------------|-------------------|----------------------|
--3-3-3-3-3-------------------|--2----------------|----------------------|
--3-3-3-3-3-----3-3-3-3-3-----|--2----------------|--2---------2----5----|
--1-1-1-1-1-----3-3-3-3-3-----|--0----------------|--0----5----0----3----|
----------------1-1-1-1-1-----|-------------------|-------3--------------|
------------------------------|-------------------|----------------------|


  S S S S S S S S S S S S S S S S    S S S S S S S S S S S S S S S S  
----------------------------------|----------------------------------|
----------------------------------|----------------------------------|
----------------------------------|----------------------------------|
------------------3-3-3-3-3-3-3-3-|----------------------------------|
--5-5-5-5-5-5-5-5-----------------|--3-3-3-3-3-3-3-3-1-1-1-1-0-0-0-0-|
----------------------------------|----------------------------------|
----------------------------------|----------------------------------|


  E  E  H.              E  Q.     H           
---------------------|----------------------||
---------------------|----------------------||
--2------------------|--7--7------L\--------||
--2------------------|--7--7------L\--------||
--0------------------|--5--5------L\--------||
---------------------|----------------------||
---------------------|----------------------||

***************************************************************************************
#######################################################################################
***************************************************************************************


Sam Totman | Lead



      PM  PM  PM  PM  PM  PM  PM  PM     PM  PM  PM  PM  PM  PM  PM      
      E   E   E   E   E   E   E   E      E   E   E   E   E   E   E   E   
E||----------------------------------|----------------------------------|
B||----------------------------------|----------------------------------|
G||----------------------------------|------------------------------14--|
D||--12--12--14--14--15--15--12--12--|--14--14--15--15--12--12--15------|
A||----------------------------------|----------------------------------|
E||----------------------------------|----------------------------------|
B||----------------------------------|----------------------------------|


          PM  PM  PM  PM  PM  PM     PM  PM  PM  PM  PM  PM  PM      
  E   E   E   E   E   E   E   E      E   E   E   E   E   E   E   E   
---------------------------------|----------------------------------|
---------------------------------|----------------------------------|
--L--14----------12--12----------|----------------------------------|
---------15--15----------14--14--|--15--15--12--12--14--14------12--|
---------------------------------|--------------------------15------|
---------------------------------|----------------------------------|
---------------------------------|----------------------------------|


           PM  PM  PM  PM  PM  PM     PM  PM  PM  PM  PM  PM  PM      
   E   E   E   E   E   E   E   E      E   E   E   E   E   E   E   E   
----------------------------------|----------------------------------|
----------------------------------|----------------------------------|
----------------------------------|------------------------------15--|
---L--12--14--14--15--15--12--12--|--14--14--15--15--12--12--15------|
----------------------------------|----------------------------------|
----------------------------------|----------------------------------|
----------------------------------|----------------------------------|


      PM  PM  PM  PM  PM  PM                                                    
  E   E   E   E   E   E   E   E     E   E  E   E  H           W                 
---------------------------------|-------------------------|-------------------|
---------------------------------|-------------------------|-------------------|
--L--15--15--15--15--15--15--14--|-----14-----14-----------|-------------------|
---------------------------------|-------------------------|-------------------|
---------------------------------|-------------------------|-------------------|
---------------------------------|-------------------------|-------------------|
---------------------------------|-------------------------|-------------------|


                                               PM  PM                           
    Q.      Q.       Q        Q.      Q.       E   E      Q.      Q.      Q     
--------------------------|---------------------------|------------------------|
--------------------------|---------------------------|------------------------|
--/14---------------------|---------------------------|--14------15------14----|
-----------17~------15----|--14---------------14--15--|------------------------|
--------------------------|----------15~--------------|------------------------|
--------------------------|---------------------------|------------------------|
--------------------------|---------------------------|------------------------|


   Q.       Q.      Q         Q.      Q.       Q     
-------------------------|--------------------------|
-------------------------|--------------------------|
--15b------15------14----|--/14---------------------|
-------------------------|-----------17~------15----|
-------------------------|--------------------------|
-------------------------|--------------------------|
-------------------------|--------------------------|


                  PM  PM  PM                           
   Q.      Q      E   E   E      Q.      Q.      Q     
-----------------------------|------------------------|
-----------------------------|------------------------|
-----------------------------|--14------15------14----|
--14-----------------14--15--|------------------------|
----------15~----15----------|------------------------|
-----------------------------|------------------------|
-----------------------------|------------------------|


                               -/1     -/1     -/1   
   Q      E   E   H            Q.      Q.      Q     
---------------------------|------------------------|
---------17----------------|------------------------|
--15b--------14b--L--------|--14--------------------|
---------------------------|----------17------15----|
---------------------------|------------------------|
---------------------------|------------------------|
---------------------------|------------------------|


   -/1              PM  PM                             
   Q.      Q.       E   E      Q.      Q.      E   E   
---------------------------|--------------------------|
---------------------------|--------------------------|
---------------------------|--14------15------14--15--|
--14---------------14--15--|--------------------------|
----------15~--------------|--------------------------|
---------------------------|--------------------------|
---------------------------|--------------------------|


   E   E   E   E   E   E   E   E      Q.      Q.      Q     
----------------------------------|------------------------|
--18--17------17------------------|------------------------|
----------17------17--14--15--17--|--14--------------------|
----------------------------------|----------17------15----|
----------------------------------|------------------------|
----------------------------------|------------------------|
----------------------------------|------------------------|


                     PM  PM  PM                                       
   Q     E   E   E   E   E   E      E   E   E    E   E   E    E   E   
--------------------------------|------------------------------------|
--------------------------------|------------------------------------|
--------------------------------|--14------14s--15--15--15br--L--14--|
--14----15----------14--15--14--|------15----------------------------|
------------15~--L--------------|------------------------------------|
--------------------------------|------------------------------------|
--------------------------------|------------------------------------|


   S   S   S   S   S   S  S   S   S   S   S   S  S   S   S   S  
---------------------------------------------------------------|
--18p-13h-18p-13h-18p-13-11h-13p-11h-13p-11h-13-10h-11p-10h-11-|
---------------------------------------------------------------|
---------------------------------------------------------------|
---------------------------------------------------------------|
---------------------------------------------------------------|
---------------------------------------------------------------|


    -/2                 
    Q    H.             
-----------------------|
--<>6----L~------------|
-----------------------|
-----------------------|
-----------------------|
-----------------------|
-----------------------|


            T      T     T      T     T      T     T       T      
  H         T  T   T  T  T  T   T  T  T  T   T  T  T   T   T   T  
-------------------------------------12p-8h-12p-8-15p-12h-15p-12-|
------------------------13p-8h-13p-8-----------------------------|
-----------12p-7h-12p-7------------------------------------------|
-----------------------------------------------------------------|
-----------------------------------------------------------------|
-----------------------------------------------------------------|
-----------------------------------------------------------------|


                tr                        tr        
  H.            Q           H.            Q         
-------------------------|---------------10(13)----|
-------------------------|-------------------------|
---------------12(15)----|-------------------------|
-------------------------|-------------------------|
-------------------------|-------------------------|
-------------------------|-------------------------|
-------------------------|-------------------------|


                                                        -/1  W             
   S  S  S  S  S  S  S  S  S  S  S  S  S  S  S  S       Q    H.            
--------------------------------------------------|-----------------------|
--------------------------------------------------|-----------------------|
--14-------------------14-15-14-------------------|--<>14----L------------|
-----15-14-12----12-15----------15-12-14-15-14-12-|-----------------------|
--------------12----------------------------------|-----------------------|
--------------------------------------------------|-----------------------|
--------------------------------------------------|-----------------------|


     PM PM PM PM PM PM PM PM PM PM PM PM PM PM    PM            PM PM PM  
  E  S  S  S  S  S  S  S  S  S  S  S  S  S  S     E  Q    E  E  E  E  E   
-----------------------------------------------|-------------------------|
-----------------------------------------------|-------------------------|
--7--------------------------------------------|-----7----7--7-----------|
--7--------------------------------------------|--7--7----5--7--5--3--5--|
--5--5--5--5--5--5--5--5--5--5--5--5--5--5--5--|--5--5----5--5--3--1--3--|
-----------------------------------------------|-------------------------|
-----------------------------------------------|-------------------------|


     PM PM PM PM PM PM PM PM PM PM PM PM PM PM    PM             PM   SH    
  E  S  S  S  S  S  S  S  S  S  S  S  S  S  S     E  Q    E   E  E    Q     
-----------------------------------------------|---------------------------|
-----------------------------------------------|---------------------------|
--7--------------------------------------------|-----7----5s--7------------|
--7--------------------------------------------|--7--7----5s--7------------|
--5--5--5--5--5--5--5--5--5--5--5--5--5--5--5--|--5--5----3s--5--8--<>8----|
-----------------------------------------------|---------------------------|
-----------------------------------------------|---------------------------|


                      PM              PM PM PM                      
  W                   E  E   E  E  E  E  E  E     W                 
-------------------|---------------------------|-------------------|
-------------------|---------------------------|-------------------|
--5----------------|-----5s--3--5--7-----------|--3----------------|
--5----------------|--5--x------x--7--5--3--5--|--3----------------|
--3----------------|--3--3s--1--3--5--3--1--3--|--1----------------|
-------------------|---------------------------|-------------------|
-------------------|---------------------------|-------------------|


                         PM PM PM PM PM PM PM PM PM PM PM PM PM PM  
  W                   E  S  S  S  S  S  S  S  S  S  S  S  S  S  S   
-------------------|-----------------------------------------------|
-------------------|-----------------------------------------------|
--5----------------|--7--------------------------------------------|
--5----------------|--7--------------------------------------------|
--3----------------|--5--5--5--5--5--5--5--5--5--5--5--5--5--5--5--|
-------------------|-----------------------------------------------|
-------------------|-----------------------------------------------|


  PM              PM PM PM       PM PM PM PM PM PM PM PM PM PM PM PM PM PM  
  E  Q    E   E   E  E  E     E  S  S  S  S  S  S  S  S  S  S  S  S  S  S   
---------------------------|-----------------------------------------------|
---------------------------|-----------------------------------------------|
-----7----5s--7------------|--7--------------------------------------------|
--7--7----5s--7--10--7--5--|--7--------------------------------------------|
--5--5----3s--5---8--5--3--|--5--5--5--5--5--5--5--5--5--5--5--5--5--5--5--|
---------------------------|-----------------------------------------------|
---------------------------|-----------------------------------------------|


  PM PM PM PM   SH PM     PM PM PM                      
  S  S  S  S    E  E   E  E  E  E     W                 
-----------------------------------|-------------------|
-----------------------------------|-------------------|
----------------------10-----------|--5----------------|
--------------<>7-----10--9--7--5--|--5----------------|
--8--8--8--8-------5---8--7--5--3--|--3----------------|
-----------------------------------|-------------------|
-----------------------------------|-------------------|


  PM                  PM PM    PM PM PM PM PM PM PM PM PM PM PM PM PM PM PM  
  E  E   E  E   E  E  E  E     S  S  S  S  S  S  S  S  S  S  S  S  S  S  E   
----------------------------|-----------------------------------------------|
----------------------------|-----------------------------------------------|
-----5s--7--5s--7--5--------|-----------------------------------------------|
--5--x------x------x-----5--|-----------------------------------------------|
--3--3s--5--3s--5--3--0--3--|--1--1--1--1--3--3--1--1--5--5--1--1--3--3--1--|
----------------------------|-----------------------------------------------|
----------------------------|-----------------------------------------------|


  PM PM PM PM PM PM PM PM PM   PH             PM PM PM PM PM PM  
  S  S  E  S  S  E  S  S  E    Q       Q.     S  S  E  E  E  E   
------------------------------------|---------------------------|
------------------------------------|---------------------------|
------------------------------------|--3------------------------|
-----------------------------<>2----|--3------------3--3--3--3--|
--3--3--3--3--3--3--3--3--3---------|--1------1--1--1--1--0--1--|
------------------------------------|---------------------------|
------------------------------------|---------------------------|


       PM PM                 T           T     T           T     T         
  Q    E  E  E   E  Q        S  S  S  S  S  S  S  S  S  S  S  S  S  S  E   
-------------------------|------------------------------------------------|
-------------------------|------------------------------------------------|
--5----------5------5----|------------------------------------------------|
--5----5--5--3h--5--5----|------------------------------------------------|
--3----3--3--3------3----|--12p-8p-5h-8-12p-8-10p-8p-5h-8-12p-8-10p-8p-5--|
-------------------------|------------------------------------------------|
-------------------------|------------------------------------------------|


  T          T    T          T    T         
  S  S  S  S S  S S  S  S  S S  S S  S  E   
-------------------------------------------|
-------------------------------------------|
-------------------------------------------|
-------------------------------------------|
--8p-5p-1h-5-8p-5-7p-5p-1h-5-8p-5-7p-5p-1--|
-------------------------------------------|
-------------------------------------------|


  PM PM PM PM PM PM PM PM PM PM PM PM PM PM  
  E  S  S  S  S  S  S  E  S  S  S  S  S  S   
--------------------------------------------|
--------------------------------------------|
--------------------------------------------|
--5--------------------5--------------------|
--3--3--3--3--3--3--3--3--3--3--3--3--3--3--|
--------------------------------------------|
--------------------------------------------|


  PM PM PM PM PM PM PM PM PM PM PM PM PM PM                      
  E  S  S  S  S  S  S  E  S  S  S  S  S  S     W                 
--------------------------------------------|-------------------|
--------------------------------------------|-------------------|
--------------------------------------------|-------------------|
--5--------------------5--------------------|--3----------------|
--3--3--3--3--3--3--3--3--3--3--3--3--3--3--|--3----------------|
--------------------------------------------|--1----------------|
--------------------------------------------|-------------------|


                                   PM PM                PM PM PM  
  W                   H.           E  E     H        E  E  E  E   
-------------------|---------------------|-----------------------|
-------------------|---------------------|-----------------------|
-------------------|--3------------------|--5--------L-----------|
--L----------------|--3------------3--3--|--5--------L--5--7--5--|
--L----------------|--1------------0--1--|--3--------L--3--5--3--|
--L----------------|---------------------|-----------------------|
-------------------|---------------------|-----------------------|


  E  E  E  Q    E  E  E     W                 
-------------------------|-------------------|
-------------------------|-------------------|
--7-----7-------5-----3--|--L----------------|
--7-----7-------5-----3--|--L----------------|
--5-----5-------3-----1--|--L----------------|
--------5----------------|-------------------|
-------------------------|-------------------|


     PM PM PM PM PM PM PM PM PM PM PM PM PM PM  
  E  S  S  S  S  S  S  S  S  S  S  S  S  S  S   
-----------------------------------------------|
-----------------------------------------------|
-----------------------------------------------|
--5--------------------------------------------|
--5--------------------------------------------|
--3--3--3--3--3--3--3--3--3--3--3--3--3--3--3--|
-----------------------------------------------|


  PM PM PM PM PM PM PM PM PM PM PM PM PM PM PM PM  
  S  S  S  S  S  S  S  S  S  S  S  S  S  S  S  S   
--------------------------------------------------|
--------------------------------------------------|
--------------------------------------------------|
--------------------------------------------------|
--------------------------------------------------|
--3--3--3--3--3--3--3--3--3--3--3--3--3--3--3--3--|
--------------------------------------------------|


     PM PM PM PM         SH   SH   SH   SH 
  E  S  S  E  E  E  E    S    S    S    S  
------------------------------------------|
------------------------------------------|
------------------------------------------|
--7--------------7--8--<>7h-<>8p-<>7h-<>8-|
-----5--5--5--5---------------------------|
------------------------------------------|
------------------------------------------|


     PM PM PM PM         SH   SH   SH   SH                       
  E  S  S  E  E  E  E    S    S    S    S    E  H.           E   
------------------------------------------|---------------------|
------------------------------------------|---------------------|
------------------------------------------|--2---------------3--|
--5--------------5--7--<>5h-<>7p-<>5h-<>7-|--2---------------3--|
-----3--3--3--3---------------------------|--0---------------1--|
------------------------------------------|---------------------|
------------------------------------------|---------------------|


                         PM PM PM PM    PM PM PM PM    PM PM  
  W                   E  S  S  S  S  E  S  S  S  S  E  S  S   
-------------------|-----------------------------------------|
-------------------|-----------------------------------------|
-------------------|--7--------------7--------------7--------|
-------------------|--7--------------7--------------7--------|
-------------------|--5--5--5--5--5--5--5--5--5--5--5--5--5--|
-------------------|-----------------------------------------|
-------------------|-----------------------------------------|


     PM PM PM PM    PM PM PM PM    PM PM                      
  E  S  S  S  S  E  S  S  S  S  E  S  S     W                 
-----------------------------------------|-------------------|
-----------------------------------------|-------------------|
--5--------------5--------------5--------|--3----------------|
--5--------------5--------------5--------|--3----------------|
--3--3--3--3--3--3--3--3--3--3--3--3--3--|--1----------------|
-----------------------------------------|-------------------|
-----------------------------------------|-------------------|


                      PM PM PM PM PM PM PM PM PM PM PM PM PM PM PM PM  
  W                   S  S  S  S  S  S  S  S  S  S  S  S  S  S  S  S   
-------------------|--------------------------------------------------|
-------------------|--------------------------------------------------|
--2----------------|--------------------------------------------------|
--2----------------|--------------------------------------------------|
--0----------------|--1--1--1--1--3--3--1--1--5--5--1--1--3--3--1--1--|
-------------------|--------------------------------------------------|
-------------------|--------------------------------------------------|


                                          PM PM                   PM PM PM  
  E  E  E  E  E  E  E  E     H.           E  E     Q.     E   E   E  E  E   
--------------------------|---------------------|--------------------------|
--------------------------|---------------------|--------------------------|
--5-----5-----5-----5-----|--7------------------|--7------7----------------|
--5-----5-----5-----5-----|--7------------7--7--|--7------7--10--10--7--5--|
--3-----3-----3-----3-----|--5------------5--5--|--5------5---8---8--5--3--|
--------------------------|---------------------|--------------------------|
--------------------------|---------------------|--------------------------|


                      PM PM PM PM PM PM PM PM PM   SH    
  W                   S  S  E  S  S  E  S  S  E    Q     
-------------------|------------------------------------|
-------------------|------------------------------------|
--3----------------|------------------------------------|
--3----------------|-----------------------------<>5----|
--1----------------|--3--3--3--3--3--3--3--3--3---------|
-------------------|------------------------------------|
-------------------|------------------------------------|


     PM PM PM PM PM PM PM PM PM PM PM PM PM PM  
  E  S  S  S  S  S  S  S  S  S  S  S  S  S  S   
-----------------------------------------------|
-----------------------------------------------|
--7--------------------------------------------|
--7--------------------------------------------|
--5--5--5--5--5--5--5--5--5--5--5--5--5--5--5--|
-----------------------------------------------|
-----------------------------------------------|


  PM PM PM PM PM PM PM PM PM PM PM PM PM PM PM PM                      
  S  S  S  S  S  S  S  S  S  S  S  S  S  S  S  S     W                 
--------------------------------------------------|-------------------|
--------------------------------------------------|-------------------|
--------------------------------------------------|--2----------------|
--------------------------------------------------|--2----------------|
--5--5--5--5--5--5--5--5--5--5--5--5--5--5--5--5--|--0----------------|
--------------------------------------------------|-------------------|
--------------------------------------------------|-------------------|


  PM PM PM PM PM PM PM PM PM PM  
  S  S  E  E  E  S  S  E  E  E   
--------------------------------|
--------------------------------|
--------------------------------|
--------3--3--3--------5--3--5--|
--1--1--1--0--1--3--3--3--1--3--|
--------------------------------|
--------------------------------|


     PM PM PM PM PM PM PM PM PM PM PM PM PM PM  
  E  S  S  S  S  S  S  S  S  S  S  S  S  S  S   
-----------------------------------------------|
-----------------------------------------------|
-----------------------------------------------|
--3--------------------------------------------|
--3--------------------------------------------|
--1--1--1--1--1--1--1--1--1--1--1--1--1--1--1--|
-----------------------------------------------|


  PM PM PM PM PM PM PM PM PM PM PM PM PM PM PM PM           PM PM PM PM PM PM  
  S  S  S  S  S  S  S  S  S  S  S  S  S  S  S  S     Q.     S  S  E  E  E  E   
--------------------------------------------------|---------------------------|
--------------------------------------------------|---------------------------|
--------------------------------------------------|--3------------------------|
--------------------------------------------------|--3------------3--3--3--3--|
--------------------------------------------------|--1------1--1--1--1--0--1--|
--1--1--1--1--1--1--1--1--1--1--1--1--1--1--1--1--|---------------------------|
--------------------------------------------------|---------------------------|


                                PM PM PM PM PM PM PM PM PM PM PM PM PM PM  
  Q.     E   E  E   E  E     E  S  S  S  S  S  S  S  S  S  S  S  S  S  S   
--------------------------|-----------------------------------------------|
--------------------------|-----------------------------------------------|
--5------5s--7--5s--7--5--|--2--------------------------------------------|
--5------x------x------x--|--2--------------------------------------------|
--3------3s--5--3s--5--3--|--0--0--0--0--0--0--0--0--0--0--0--0--0--0--0--|
--------------------------|-----------------------------------------------|
--------------------------|-----------------------------------------------|


     PM PM PM PM PM PM PM PM PM PM PM PM PM PM                        
  E  S  S  S  S  S  S  S  S  S  S  S  S  S  S     E  Q.     H         
-----------------------------------------------|---------------------|
-----------------------------------------------|---------------------|
--3--------------------------------------------|--5------------------|
--3--------------------------------------------|--5------------------|
--1--1--1--1--1--1--1--1--1--1--1--1--1--1--1--|--3------------------|
-----------------------------------------------|---------------------|
-----------------------------------------------|---------------------|


  W                   S  S S  S S  S  S S S  S S  S S  S  S S  
-------------------|------------------------------------------|
-------------------|------------6h-8p-6-------------6h-8p-6---|
-------------------|--7p-5-7h-9---------9-7p-5-7h-9---------9-|
-------------------|------------------------------------------|
-------------------|------------------------------------------|
-------------------|------------------------------------------|
-------------------|------------------------------------------|


                         SH              
  S  S S  S S  S  S S    E   E  S  S E   
----------------------------------------|
------------6h-8p-6---<>10--10--8p-6----|
--7p-5-7h-9---------9----------------7--|
----------------------------------------|
----------------------------------------|
----------------------------------------|
----------------------------------------|


  S  S S  S S  S  S S S  S S  S S  S  S S  
------------------------------------------|
------------6h-8p-6-------------6h-8p-6---|
--7p-5-7h-9---------9-7p-5-7h-9---------9-|
------------------------------------------|
------------------------------------------|
------------------------------------------|
------------------------------------------|


                                       SH      PM PM          PM PM           
   S  S   S S  S   S  S  S  S  S  E    Q       E  E  S   S E  E  E  S   S E   
--------------------------------------------|--------------------------------|
------------8-10h-11-10p-8-10p-8------------|--------------------------------|
--10p-9h-10----------------------10--<>9----|--7--7--9h-10-9--7--7--9h-10-9--|
--------------------------------------------|--------------------------------|
--------------------------------------------|--------------------------------|
--------------------------------------------|--------------------------------|
--------------------------------------------|--------------------------------|


  PM PM          PM PM  PM PMPM PM PM PM                                    
  E  E  S   S E  S  S   S  S S  S  S  S      Q     E   S   S E   E   E  E   
-----------------------------------------|---------------------------------|
-----------------------------8--8--------|--------10--10s-11-L--10---------|
--7--7--9h-10-9--9--9--10-10-------9--9--|--10----------------------10--7--|
-----------------------------------------|---------------------------------|
-----------------------------------------|---------------------------------|
-----------------------------------------|---------------------------------|
-----------------------------------------|---------------------------------|


                                                           PM PM PM PM PM       
  E  E  E  E  E  S   S E  E       H.            Q       E  E  E  E  E  E  Q     
-----------------------------|-----------------------|-------------------------|
-----------------------------|-----------------------|-------------------------|
--9-----7--9-----9s-10-9--7--|-----------------------|--------------------5----|
-----------------------------|--<>8~-----------------|-----8--7--5--7--8-------|
-----------------------------|-----------------------|-------------------------|
-----------------------------|-----------------------|-------------------------|
-----------------------------|-----------------------|-------------------------|


    \1                     PM PM PM PM PM PM PM PM PM PM PM PM PM PM  
    W                   E  S  S  S  S  S  S  S  S  S  S  S  S  S  S   
---------------------|-----------------------------------------------|
---------------------|-----------------------------------------------|
---------------------|--7--------------------------------------------|
---------------------|--7--------------------------------------------|
--<>5----------------|--5--5--5--5--5--5--5--5--5--5--5--5--5--5--5--|
---------------------|-----------------------------------------------|
---------------------|-----------------------------------------------|


  PM            PM PM PM       PM PM PM PM PM PM PM PM PM PM PM PM PM PM  
  E  Q    E  E  E  E  E     E  S  S  S  S  S  S  S  S  S  S  S  S  S  S   
-------------------------|-----------------------------------------------|
-------------------------|-----------------------------------------------|
-----7----7--7-----------|--7--------------------------------------------|
--7--7----5--7--5--3--5--|--7--------------------------------------------|
--5--5----5--5--3--1--3--|--5--5--5--5--5--5--5--5--5--5--5--5--5--5--5--|
-------------------------|-----------------------------------------------|
-------------------------|-----------------------------------------------|


  PM             PM   SH                          PM              PM PM PM  
  E  Q    E   E  E    Q       W                   E  E   E  E  E  E  E  E   
---------------------------|-------------------|---------------------------|
---------------------------|-------------------|---------------------------|
-----7----5s--7------------|--5----------------|-----5s--3--5--7-----------|
--7--7----5s--7------------|--5----------------|--5--x------x--7--5--3--5--|
--5--5----3s--5--8--<>8----|--3----------------|--3--3s--1--3--5--3--1--3--|
---------------------------|-------------------|---------------------------|
---------------------------|-------------------|---------------------------|


  W                   W                 
-------------------|-------------------|
-------------------|-------------------|
--3----------------|--5----------------|
--3----------------|--5----------------|
--1----------------|--3----------------|
-------------------|-------------------|
-------------------|-------------------|


     PM PM PM PM PM PM PM PM PM PM PM PM PM PM    PM              PM PM PM  
  E  S  S  S  S  S  S  S  S  S  S  S  S  S  S     E  Q    E   E   E  E  E   
-----------------------------------------------|---------------------------|
-----------------------------------------------|---------------------------|
--7--------------------------------------------|-----7----5s--7------------|
--7--------------------------------------------|--7--7----5s--7--10--7--5--|
--5--5--5--5--5--5--5--5--5--5--5--5--5--5--5--|--5--5----3s--5---8--5--3--|
-----------------------------------------------|---------------------------|
-----------------------------------------------|---------------------------|


     PM PM PM PM PM PM PM PM PM PM PM PM PM PM  
  E  S  S  S  S  S  S  S  S  S  S  S  S  S  S   
-----------------------------------------------|
-----------------------------------------------|
--7--------------------------------------------|
--7--------------------------------------------|
--5--5--5--5--5--5--5--5--5--5--5--5--5--5--5--|
-----------------------------------------------|
-----------------------------------------------|


  PM PM PM PM   SH PM     PM PM PM                      
  S  S  S  S    E  E   E  E  E  E     W                 
-----------------------------------|-------------------|
-----------------------------------|-------------------|
----------------------10-----------|--5----------------|
--------------<>7-----10--9--7--5--|--5----------------|
--8--8--8--8-------5---8--7--5--3--|--3----------------|
-----------------------------------|-------------------|
-----------------------------------|-------------------|


  PM                  PM PM    PM PM PM PM PM PM PM PM PM PM PM PM PM PM PM  
  E  E   E  E   E  E  E  E     S  S  S  S  S  S  S  S  S  S  S  S  S  S  E   
----------------------------|-----------------------------------------------|
----------------------------|-----------------------------------------------|
-----5s--7--5s--7--5--------|-----------------------------------------------|
--5--x------x------x-----5--|-----------------------------------------------|
--3--3s--5--3s--5--3--0--3--|--1--1--1--1--3--3--1--1--5--5--1--1--3--3--1--|
----------------------------|-----------------------------------------------|
----------------------------|-----------------------------------------------|


  PM PM PM PM PM PM PM PM PM   PH             PM PM PM PM PM PM  
  S  S  E  S  S  E  S  S  E    Q       Q.     S  S  E  E  E  E   
------------------------------------|---------------------------|
------------------------------------|---------------------------|
------------------------------------|--3------------------------|
-----------------------------<>2----|--3------------3--3--3--3--|
--3--3--3--3--3--3--3--3--3---------|--1------1--1--1--1--0--1--|
------------------------------------|---------------------------|
------------------------------------|---------------------------|


       PM PM                      T     T     T     T     T     T     T     
  Q    E  E  E   E  Q       S  S  S  S  S  S  S  S  S  S  S  S  S  S  S  S  
-------------------------|-------------------------------------------------|
-------------------------|-------------------------------------------------|
--5----------5------5----|-------------------------------------------------|
--5----5--5--3h--5--5----|-------------------------------------------------|
--3----3--3--3------3----|--5h-8-10p-8-12p-8-10p-8-13p-8-12p-8-10p-8-12p-8-|
-------------------------|-------------------------------------------------|
-------------------------|-------------------------------------------------|


                    PM PM PM PM PM PM     
  S S S  S S  S S S S  S  S  S  S  S  E   
-----------------------------------------|
-----------------------------------------|
-----------------------------------------|
----0-3p-0-3p-0---0-5--0--3--0--2--0--3--|
--1-------------1------------------------|
-----------------------------------------|
-----------------------------------------|


  PM PM PM PM PM PM PM PM PM PM PM PM PM PM  
  E  S  S  S  S  S  S  E  S  S  S  S  S  S   
--------------------------------------------|
--------------------------------------------|
--------------------------------------------|
--5--------------------5--------------------|
--3--3--3--3--3--3--3--3--3--3--3--3--3--3--|
--------------------------------------------|
--------------------------------------------|


  PM PM PM PM PM PM PM PM PM PM PM PM PM PM                      
  E  S  S  S  S  S  S  E  S  S  S  S  S  S     W                 
--------------------------------------------|-------------------|
--------------------------------------------|-------------------|
--------------------------------------------|-------------------|
--5--------------------5--------------------|--3----------------|
--3--3--3--3--3--3--3--3--3--3--3--3--3--3--|--3----------------|
--------------------------------------------|--1----------------|
--------------------------------------------|-------------------|


                                   PM PM                PM PM PM  
  W                   H.           E  E     H        E  E  E  E   
-------------------|---------------------|-----------------------|
-------------------|---------------------|-----------------------|
-------------------|--3------------------|--5--------L-----------|
--L----------------|--3------------3--3--|--5--------L--5--7--5--|
--L----------------|--1------------0--1--|--3--------L--3--5--3--|
--L----------------|---------------------|-----------------------|
-------------------|---------------------|-----------------------|


  E  E  E  Q    E  E  E     W                 
-------------------------|-------------------|
-------------------------|-------------------|
--7-----7-------5-----3--|--L----------------|
--7-----7-------5-----3--|--L----------------|
--5-----5-------3-----1--|--L----------------|
--------5----------------|-------------------|
-------------------------|-------------------|


     PM PM PM PM PM PM PM PM PM PM PM PM PM PM  
  E  S  S  S  S  S  S  S  S  S  S  S  S  S  S   
-----------------------------------------------|
-----------------------------------------------|
-----------------------------------------------|
--5--------------------------------------------|
--5--------------------------------------------|
--3--3--3--3--3--3--3--3--3--3--3--3--3--3--3--|
-----------------------------------------------|


  PM PM PM PM PM PM PM PM PM PM PM PM PM PM PM PM  
  S  S  S  S  S  S  S  S  S  S  S  S  S  S  S  S   
--------------------------------------------------|
--------------------------------------------------|
--------------------------------------------------|
--------------------------------------------------|
--------------------------------------------------|
--3--3--3--3--3--3--3--3--3--3--3--3--3--3--3--3--|
--------------------------------------------------|


     PM PM PM PM         SH   SH   SH   SH 
  E  S  S  E  E  E  E    S    S    S    S  
------------------------------------------|
------------------------------------------|
------------------------------------------|
--7--------------7--8--<>7h-<>8p-<>7h-<>8-|
-----5--5--5--5---------------------------|
------------------------------------------|
------------------------------------------|


     PM PM PM PM         SH   SH   SH   SH                       
  E  S  S  E  E  E  E    S    S    S    S    E  H.           E   
------------------------------------------|---------------------|
------------------------------------------|---------------------|
------------------------------------------|--2---------------3--|
--5--------------5--7--<>5h-<>7p-<>5h-<>7-|--2---------------3--|
-----3--3--3--3---------------------------|--0---------------1--|
------------------------------------------|---------------------|
------------------------------------------|---------------------|


                         PM PM PM PM    PM PM PM PM    PM PM  
  W                   E  S  S  S  S  E  S  S  S  S  E  S  S   
-------------------|-----------------------------------------|
-------------------|-----------------------------------------|
-------------------|--7--------------7--------------7--------|
-------------------|--7--------------7--------------7--------|
-------------------|--5--5--5--5--5--5--5--5--5--5--5--5--5--|
-------------------|-----------------------------------------|
-------------------|-----------------------------------------|


     PM PM PM PM    PM PM PM PM    PM PM                      
  E  S  S  S  S  E  S  S  S  S  E  S  S     W                 
-----------------------------------------|-------------------|
-----------------------------------------|-------------------|
--5--------------5--------------5--------|--3----------------|
--5--------------5--------------5--------|--3----------------|
--3--3--3--3--3--3--3--3--3--3--3--3--3--|--1----------------|
-----------------------------------------|-------------------|
-----------------------------------------|-------------------|


  W                   E  Q.     H           W                 
-------------------|---------------------|-------------------|
-------------------|---------------------|-------------------|
--2----------------|--3------------------|-------------------|
--2----------------|--3------------------|-------------------|
--0----------------|--1------------------|-------------------|
-------------------|---------------------|-------------------|
-------------------|---------------------|-------------------|


               PM PM                   PM PM PM                      
  H.           E  E     Q.     E   E   E  E  E     W                 
---------------------|--------------------------|-------------------|
---------------------|--------------------------|-------------------|
--7------------------|--7------7----------------|--3----------------|
--7------------7--7--|--7------7--10--10--7--5--|--3----------------|
--5------------5--5--|--5------5---8---8--5--3--|--1----------------|
---------------------|--------------------------|-------------------|
---------------------|--------------------------|-------------------|


  PM PM PM PM PM PM PM PM PM   SH    
  S  S  E  S  S  E  S  S  E    Q     
------------------------------------|
------------------------------------|
------------------------------------|
-----------------------------<>5----|
--3--3--3--3--3--3--3--3--3---------|
------------------------------------|
------------------------------------|


     PM PM PM PM PM PM PM PM PM PM PM PM PM PM  
  E  S  S  S  S  S  S  S  S  S  S  S  S  S  S   
-----------------------------------------------|
-----------------------------------------------|
--7--------------------------------------------|
--7--------------------------------------------|
--5--5--5--5--5--5--5--5--5--5--5--5--5--5--5--|
-----------------------------------------------|
-----------------------------------------------|


  PM PM PM PM PM PM PM PM PM PM PM PM PM PM PM PM                      
  S  S  S  S  S  S  S  S  S  S  S  S  S  S  S  S     W                 
--------------------------------------------------|-------------------|
--------------------------------------------------|-------------------|
--------------------------------------------------|--2----------------|
--------------------------------------------------|--2----------------|
--5--5--5--5--5--5--5--5--5--5--5--5--5--5--5--5--|--0----------------|
--------------------------------------------------|-------------------|
--------------------------------------------------|-------------------|


  PM PM PM PM PM PM PM PM PM PM  
  S  S  E  E  E  S  S  E  E  E   
--------------------------------|
--------------------------------|
--------------------------------|
--------3--3--3--------5--3--5--|
--1--1--1--0--1--3--3--3--1--3--|
--------------------------------|
--------------------------------|


     PM PM PM PM PM PM PM PM PM PM PM PM PM PM  
  E  S  S  S  S  S  S  S  S  S  S  S  S  S  S   
-----------------------------------------------|
-----------------------------------------------|
-----------------------------------------------|
--3--------------------------------------------|
--3--------------------------------------------|
--1--1--1--1--1--1--1--1--1--1--1--1--1--1--1--|
-----------------------------------------------|


  PM PM PM PM PM PM PM PM PM PM PM PM PM PM PM PM           PM PM PM PM PM PM  
  S  S  S  S  S  S  S  S  S  S  S  S  S  S  S  S     Q.     S  S  E  E  E  E   
--------------------------------------------------|---------------------------|
--------------------------------------------------|---------------------------|
--------------------------------------------------|--3------------------------|
--------------------------------------------------|--3------------3--3--3--3--|
--------------------------------------------------|--1------1--1--1--1--0--1--|
--1--1--1--1--1--1--1--1--1--1--1--1--1--1--1--1--|---------------------------|
--------------------------------------------------|---------------------------|


                                PM PM PM PM PM PM PM PM PM PM PM PM PM PM  
  Q.     E   E  E   E  E     E  S  S  S  S  S  S  S  S  S  S  S  S  S  S   
--------------------------|-----------------------------------------------|
--------------------------|-----------------------------------------------|
--5------5s--7--5s--7--5--|--2--------------------------------------------|
--5------x------x------x--|--2--------------------------------------------|
--3------3s--5--3s--5--3--|--0--0--0--0--0--0--0--0--0--0--0--0--0--0--0--|
--------------------------|-----------------------------------------------|
--------------------------|-----------------------------------------------|


     PM PM PM PM PM PM PM PM PM PM PM PM PM PM                        
  E  S  S  S  S  S  S  S  S  S  S  S  S  S  S     E  Q.     H         
-----------------------------------------------|---------------------|
-----------------------------------------------|---------------------|
--3--------------------------------------------|--5------------------|
--3--------------------------------------------|--5------------------|
--1--1--1--1--1--1--1--1--1--1--1--1--1--1--1--|--3------------------|
-----------------------------------------------|---------------------|
-----------------------------------------------|---------------------|


  W                   S  S S  S S  S  S S S  S S  S S  S  S S  
-------------------|------------------------------------------|
-------------------|------------6h-8p-6-------------6h-8p-6---|
-------------------|--7p-5-7h-9---------9-7p-5-7h-9---------9-|
-------------------|------------------------------------------|
-------------------|------------------------------------------|
-------------------|------------------------------------------|
-------------------|------------------------------------------|


                      PM PM PM PM  PM PMPM PM  
  S  S S  S S  S  S S S  S  S  S   S  S S  S   
----------------------------------------------|
------------6h-8p-6---6--6--8--8--10-10-6--6--|
--7p-5-7h-9---------9-------------------------|
----------------------------------------------|
----------------------------------------------|
----------------------------------------------|
----------------------------------------------|


  S  S S  S S  S  S S S  S S  S S  S  S S  
------------------------------------------|
------------6h-8p-6-------------6h-8p-6---|
--7p-5-7h-9---------9-7p-5-7h-9---------9-|
------------------------------------------|
------------------------------------------|
------------------------------------------|
------------------------------------------|


                                    SH      PM PM          PM PM           
   S  S  S S  S   S  S  S  E   E    Q       E  E  S   S E  E  E  S   S E   
-----------------------------------------|--------------------------------|
-----------8-10h-11-10p-8-10------<>8----|--------------------------------|
--10p-9-10--------------------10---------|--7--7--9h-10-9--7--7--9h-10-9--|
-----------------------------------------|--------------------------------|
-----------------------------------------|--------------------------------|
-----------------------------------------|--------------------------------|
-----------------------------------------|--------------------------------|


  PM PM          PM PM  PM PMPM PM PM PM                                    
  E  E  S   S E  S  S   S  S S  S  S  S      Q     E   S   S E   E   E  E   
-----------------------------------------|---------------------------------|
-----------------------------8--8--------|--------10--10s-11-L--10---------|
--7--7--9h-10-9--9--9--10-10-------9--9--|--10----------------------10--7--|
-----------------------------------------|---------------------------------|
-----------------------------------------|---------------------------------|
-----------------------------------------|---------------------------------|
-----------------------------------------|---------------------------------|


                                                           PM PM PM PM PM       
  E  E  E  E  E  S   S E  E       H.            Q       E  E  E  E  E  E  Q     
-----------------------------|-----------------------|-------------------------|
-----------------------------|-----------------------|-------------------------|
--9-----7--9-----9s-10-9--7--|-----------------------|--------------------5----|
-----------------------------|--<>8~-----------------|-----8--7--5--7--8-------|
-----------------------------|-----------------------|-------------------------|
-----------------------------|-----------------------|-------------------------|
-----------------------------|-----------------------|-------------------------|


    -/1                
    W                  
----------------------|
----------------------|
----------------------|
--<>5~----------------|
----------------------|
----------------------|
----------------------|


   T       T      T      T     T       T      T       T      
   S   S   S   S  S  S   S  S  S   S   S   S  S   S   S   S  
------------------------------------------------------------|
--13p-10h-13p-10-13p-8h-13p-8-13p-10h-13p-10-13p-11h-13p-11-|
------------------------------------------------------------|
------------------------------------------------------------|
------------------------------------------------------------|
------------------------------------------------------------|
------------------------------------------------------------|


  T          T    T          T    T               TP          NH           
  S  S  S  S S  S S  S  S  S S  S S  S  S  S      H           Q     Q      
---------------------------------------------|----------------------------|
---------------------------------------------|----------------------------|
--9p-5p-2h-5-9p-5-8p-5p-2h-5-9p-5-8p-5p-2h-5-|--<>2S--------<>7-----------|
---------------------------------------------|---------------------12\----|
---------------------------------------------|----------------------------|
---------------------------------------------|----------------------------|
---------------------------------------------|----------------------------|


   PM PM   PM    PM         PM PM   PM    PM                              
   E  Q    E  E  E  Q       E  Q    E  E  E  Q       H        Q.      E   
|------------------------|------------------------|----------------------|
|------------------------|------------------------|----------------------|
|------------------------|------------------------|----------------------|
|------------------------|------------------------|--8--------L------10--|
|------------------------|------------------------|--8--------L------10--|
|--5--5----5--L--5-------|--5--5----5--L--5-------|--6--------L-------8--|
|--3--3----3--L--3-------|--3--3----3--L--3-------|--6--------L-------8--|


                      PM PM PM PM    PM         PM PM   PM    PM       
  W                   E  E  E  E  E  E  Q       E  Q    E  E  E  Q     
-------------------|-------------------------|------------------------|
-------------------|-------------------------|------------------------|
-------------------|-------------------------|------------------------|
--L----------------|-------------------------|------------------------|
--L----------------|-------------------------|------------------------|
--L----------------|--5--5--5--5--L--5-------|--5--5----5--L--5-------|
--L----------------|--3--3--3--3--L--3-------|--3--3----3--L--3-------|


  H        Q.     E     Q.      E  H             E  Q.     H         
---------------------|-----------------------||---------------------|
---------------------|-----------------------||---------------------|
---------------------|-----------------------||--7------------------|
--7--------L------8--|--L------10--L---------||--7------------------|
--7--------L------8--|--L------10--L---------||--5------------------|
--5--------L------6--|--L-------8--L---------||---------------------|
--5--------L------6--|--L-------8--L---------||---------------------|


  W                   E  Q.     H           H        E  Q    E   
-------------------|---------------------|----------------------|
-------------------|---------------------|----------------------|
-------------------|--7------------------|--------------5----7--|
-------------------|--7------------------|--------------5----7--|
-------------------|--5------------------|--------------3----5--|
-------------------|---------------------|----------------------|
-------------------|---------------------|----------------------|


                                      PM                            
  E  Q.     H           H        Q    E   E      W                  
---------------------|-------------------10~--|--Ls----------------|
---------------------|------------------------|--------------------|
--7------------------|------------------------|--------------------|
--7------------------|------------------------|--------------------|
--5------------------|----------------8-------|--------------------|
---------------------|----------------6-------|--------------------|
---------------------|------------------------|--------------------|


   H           Q.       E     E  E  E   E  E  E  E  E   
--13~--------/18/~---------|---------------------------|
---------------------------|--------6--10--8--6-----6--|
------------------------7--|--L--7---------------7-----|
---------------------------|---------------------------|
---------------------------|---------------------------|
---------------------------|---------------------------|
---------------------------|---------------------------|


  E  E  E  E  E   E   E   E     E  E  E  E  E    E  E  E   
-----------------------------|-----------5--8br--L--L--5--|
--L--------------------------|--8--6--8-------------------|
-----7--5-----5s--7s--5s--7--|----------------------------|
-----------7-----------------|----------------------------|
-----------------------------|----------------------------|
-----------------------------|----------------------------|
-----------------------------|----------------------------|


  E  E  E  E  Q.     E     E  E  E   E  E  E  E  E   
--L---------------------|---------------------------|
-----8--6---------------|--------6--10--8--6-----6--|
-----------7--L------7--|--L--7---------------7-----|
------------------------|---------------------------|
------------------------|---------------------------|
------------------------|---------------------------|
------------------------|---------------------------|


  E  E  E  E  E   E   E  E     E  E  E  E  E  E  E  E   
----------------------------|--------------------------|
--L-------------------------|--------------------------|
-----7--5-----5s--7s--5-----|--5-----------------5-----|
-----------7-------------7--|-----7--5-----5--7-----7--|
----------------------------|-----------8--------------|
----------------------------|--------------------------|
----------------------------|--------------------------|


  E   E  E  E   E  E   E    E      E   E   E   E   E   E   E   E   
-------------------------------|--10--10--------------------------|
------------6s--8--8--10s--13--|----------13--10--13--10------10--|
--5s--7--7---------------------|--------------------------12------|
-------------------------------|----------------------------------|
-------------------------------|----------------------------------|
-------------------------------|----------------------------------|
-------------------------------|----------------------------------|


  E   E   E   E   E    E   E    E      E    E    E    E   E    E    E    E    
-----------------------------------|-----------------------------------------|
--L--10----------------------------|---------------------13s--10s--13s--10S--|
---------12--10--12s--14-----------|--12s--10s--12s--10----------------------|
--------------------------15s--12--|-----------------------------------------|
-----------------------------------|-----------------------------------------|
-----------------------------------|-----------------------------------------|
-----------------------------------|-----------------------------------------|


   E   E   E   S   S H            E   E   E   E   E   E   E   E   
------------------------------|--17--17--15------15--13----------|
--13------13--13s-15-L--------|--------------18----------15--18--|
------14----------------------|----------------------------------|
------------------------------|----------------------------------|
------------------------------|----------------------------------|
------------------------------|----------------------------------|
------------------------------|----------------------------------|


  E   E   E   E   E    E    E    E      E   E   E   E   E   E   E   E   
------------------------------------|----------17--20--22--20------20--|
--L--15--13------13s--15s--13s--15--|--18--18------------------22------|
-------------14---------------------|----------------------------------|
------------------------------------|----------------------------------|
------------------------------------|----------------------------------|
------------------------------------|----------------------------------|
------------------------------------|----------------------------------|


   S   S   S   S   S   S  S   S   S   S   S   S  S   S   S   S  
---------------------------------------------------------------|
--17h-18p-17h-18p-17h-18-18h-20p-18h-20p-18h-20-20h-22p-20h-22-|
---------------------------------------------------------------|
---------------------------------------------------------------|
---------------------------------------------------------------|
---------------------------------------------------------------|
---------------------------------------------------------------|


  * w/ Wah                                                   
           PM PM PM                                          
  E        E  E  E  E  S  S E  E     E  E  E  E  E  E  Q     
----------------------------------|-------------------------|
--5--------5--5--5--5-------------|-------------------------|
-----------------------7p-5----5--|--L-----------------5----|
----------------------------7-----|-----7--5-----5--7-------|
----------------------------------|-----------7-------------|
----------------------------------|-------------------------|
----------------------------------|-------------------------|


    Q       Q     E  E  E   E      E    E  E   E  E  E   Q      
-------------------------------|-------------------------------|
---------------------8--8--13--|--13s--10------------8---------|
--5g9----5g10----10------------|-----------9--10--L------------|
-------------------------------|------------------------10~----|
-------------------------------|-------------------------------|
-------------------------------|-------------------------------|
-------------------------------|-------------------------------|


  E   E  Q      E  E   Q         E  E   E    E  E   Q.      
-----------------------------|-----------------------------|
-----------------------------|--10--8--10s--13-----10------|
-----------------------------|-----------------------------|
--7------7~----10--7--10~----|-----------------------------|
-----10----------------------|-----------------------------|
-----------------------------|-----------------------------|
-----------------------------|-----------------------------|


   PM PM PM PM PM PM PM PM PM PM PM PM             
   S  S  S  S  S  S  S  S  S  S  S  S  S  S  S  S  
--10-10-------------12-12-------------13-13-------|
--------12-12-12-12-------13-13-13-13-------15-15-|
--------------------------------------------------|
--------------------------------------------------|
--------------------------------------------------|
--------------------------------------------------|
--------------------------------------------------|


   T          T          T          T          T          T          T          
   |---6---|  |---6---|  |---6---|  |---6---|  |---6---|  |---6---|  |---6---|  
   S   S   S  S   S   S  S   S   S  S   S   S  S   S   S  S   S   S  S   S   S  
--19p-10h-15-19p-10h-15-19p-10h-15-19p-10h-15-19p-10h-15-19p-10h-15-19p-10h-15-1
--------------------------------------------------------------------------------
--------------------------------------------------------------------------------
--------------------------------------------------------------------------------
--------------------------------------------------------------------------------
--------------------------------------------------------------------------------
--------------------------------------------------------------------------------


  PM PM PM PM              PM PM PM PM              PM PM PM PM            
  E  E  E  E  E  Q.        E  E  E  E  E  Q.        E  E  E  E  E  Q.      
------------------------|------------------------|------------------------|
------------------------|------------------------|------------------------|
------------------------|--------------5---------|--------------7---------|
--------------2---------|--5--5--5--5--5---------|--7--7--7--7--7---------|
--2--2--2--2--2---------|--3--3--3--3--3---------|--5--5--5--5--5---------|
--0--0--0--0--0---------|------------------------|------------------------|
------------------------|------------------------|------------------------|


  PM PM    PM              PM PM PM PM              PM PM PM PM            
  E  E  E  E  E  Q.        E  E  E  E  E  Q.        E  E  E  E  E  Q.      
------------------------|------------------------|------------------------|
------------------------|------------------------|------------------------|
--------9-----9--7------|------------------------|--------------5---------|
--------9-----9--7------|--------------2---------|--5--5--5--5--5---------|
--------7-----7--5------|--2--2--2--2--2---------|--3--3--3--3--3---------|
--0--0-----0------------|--0--0--0--0--0---------|------------------------|
------------------------|------------------------|------------------------|


  PM PM PM PM              PM PM      PM PM                                   
  E  E  E  E  E  Q.        E  E  Q    E  E  Q       E  E  E   E  E  E  E  E   
------------------------|------------------------|---------------------------|
------------------------|------------------------|--------6--10--8--6-----6--|
--------------7---------|--------4----------7----|--7--7---------------7-----|
--7--7--7--7--7---------|--4--4--4----7--7--7----|---------------------------|
--5--5--5--5--5---------|--2--2--2----5--5--5----|---------------------------|
------------------------|------------------------|---------------------------|
------------------------|------------------------|---------------------------|


  E  E  E  E  E   E   E   E     E  E  E  E  E    E  E  E   
-----------------------------|-----------5--8br--L--L--5--|
--L--------------------------|--8--6--8-------------------|
-----7--5-----5s--7s--5s--7--|----------------------------|
-----------7-----------------|----------------------------|
-----------------------------|----------------------------|
-----------------------------|----------------------------|
-----------------------------|----------------------------|


  E  E  E  E  Q.     E     E  E  E   E  E  E  E  E   
--L---------------------|---------------------------|
-----8--6---------------|--------6--10--8--6-----6--|
-----------7--L------7--|--L--7---------------7-----|
------------------------|---------------------------|
------------------------|---------------------------|
------------------------|---------------------------|
------------------------|---------------------------|


  E  E  E  E  E   E   E  E     E  E  E  E  E  E  E  E   
----------------------------|--------------------------|
--L-------------------------|--------------------------|
-----7--5-----5s--7s--5-----|--5-----------------5-----|
-----------7-------------7--|-----7--5-----5--7-----7--|
----------------------------|-----------8--------------|
----------------------------|--------------------------|
----------------------------|--------------------------|


  E   E  E  E   E  E   E    E      E   E   E   E   E   E   E   E   
-------------------------------|--10--10--------------------------|
------------6s--8--8--10s--13--|----------13--10--13--10------10--|
--5s--7--7---------------------|--------------------------12------|
-------------------------------|----------------------------------|
-------------------------------|----------------------------------|
-------------------------------|----------------------------------|
-------------------------------|----------------------------------|


  E   E   E   E   E    E   E    E      E    E    E    E   E    E    E    E    
-----------------------------------|-----------------------------------------|
--L--10----------------------------|---------------------13s--10s--13s--10S--|
---------12--10--12s--14-----------|--12s--10s--12s--10----------------------|
--------------------------15s--12--|-----------------------------------------|
-----------------------------------|-----------------------------------------|
-----------------------------------|-----------------------------------------|
-----------------------------------|-----------------------------------------|


   E   E   E   S   S H            E   E   E   E   E   E   E   E   
------------------------------|--17--17--15------15--13----------|
--13------13--13s-15-L--------|--------------18----------15--18--|
------14----------------------|----------------------------------|
------------------------------|----------------------------------|
------------------------------|----------------------------------|
------------------------------|----------------------------------|
------------------------------|----------------------------------|


  E   E   E   E   E    E    E    E      E   E   E   E   E   E   E   E   
------------------------------------|----------17--20--22--20------20--|
--L--15--13------13s--15s--13s--15--|--18--18------------------22------|
-------------14---------------------|----------------------------------|
------------------------------------|----------------------------------|
------------------------------------|----------------------------------|
------------------------------------|----------------------------------|
------------------------------------|----------------------------------|


   S   S   S   S   S   S  S   S   S   S   S   S  S   S   S   S  
---------------------------------------------------------------|
--17h-18p-17h-18p-17h-18-18h-20p-18h-20p-18h-20-20h-22p-20h-22-|
---------------------------------------------------------------|
---------------------------------------------------------------|
---------------------------------------------------------------|
---------------------------------------------------------------|
---------------------------------------------------------------|


  PM PM PM PM PM PM PM PM PM PM PM    PM PM PM PM PM PM PM PM PM PM PM PM  
  E  S  S  E  E  S  S  E  E  S  S     S  S  E  S  S  E  S  S  E  S  S  E   
-----------------------------------|--------------------------------------|
-----------------------------------|--------------------------------------|
-----------------------------------|--------------------------------------|
-----------------------------------|--------------------------------------|
--2--------2--2--------2--2--------|--------2--------2--------2--------2--|
--0--0--0--0--0--0--0--0--0--0--0--|--0--0--0--0--0--0--0--0--0--0--0--0--|
-----------------------------------|--------------------------------------|


  PM PM PM PM PM PM PM PM PM PM PM                           
  E  S  S  E  E  S  S  E  E  S  S     S E  S E  E  H         
-----------------------------------|------------------------|
-----------------------------------|------------------------|
-----------------------------------|--4----3----2--L--------|
-----------------------------------|--4----3----2--L--------|
--2--------2--2--------2--2--------|--2----1----0--L--------|
--0--0--0--0--0--0--0--0--0--0--0--|------------------------|
-----------------------------------|------------------------|


  PM PM PM PM PM PM PM PM PM PM PM    PM PM PM PM PM PM PM PM PM PM PM PM  
  E  S  S  E  E  S  S  E  E  S  S     S  S  E  S  S  E  S  S  E  S  S  E   
-----------------------------------|--------------------------------------|
-----------------------------------|--------------------------------------|
-----------------------------------|--------------------------------------|
-----------------------------------|--------------------------------------|
--2--------2--2--------2--2--------|--------2--------2--------2--------2--|
--0--0--0--0--0--0--0--0--0--0--0--|--0--0--0--0--0--0--0--0--0--0--0--0--|
-----------------------------------|--------------------------------------|


  PM PM PM PM PM PM PM PM PM PM PM                   PM PM PM  
  E  S  S  E  E  S  S  E  E  S  S     S E  S E  Q    E  E  E   
-----------------------------------|--------------------------|
-----------------------------------|--------------------------|
-----------------------------------|--4----3----2-------------|
-----------------------------------|--4----3----2-------2-----|
--2--------2--2--------2--2--------|--2----1----0----5--0--5--|
--0--0--0--0--0--0--0--0--0--0--0--|-----------------3-----3--|
-----------------------------------|--------------------------|


  E  Q.     E  Q.         S  S  S  S  S  S  S  S  S  S  S  S  S  S  S  S  
----------------------|--------------------------------------------------|
----------------------|-----------------12-------------------------------|
--4---------4---------|-----------12-14----14-12-14-14-12-12-14-14-12-12-|
--4---------4---------|--14-12-14----------------------------------------|
--2---------2---------|--------------------------------------------------|
----------------------|--------------------------------------------------|
----------------------|--------------------------------------------------|


   S  S  S  S  S  S  S  S  S  S  S  S  S  S  S  S  
--------------------------------------------------|
--15-12----------------12-12-12-------12-12-------|
--------12----------12----------14-14-------14-14-|
-----------14----14-------------------------------|
--------------14----------------------------------|
--------------------------------------------------|
--------------------------------------------------|


   S  S  S  S  S  S  S  S  S  S  S  S  S  S  S  S  
--------------------------------------------------|
-----------------12-------------------------------|
-----------12-14----14-12-14-14-12-12-14-14-12-12-|
--14-12-14----------------------------------------|
--------------------------------------------------|
--------------------------------------------------|
--------------------------------------------------|


   S  S  S  S  S  S  S  S  S  S  S  S  S  S  S  S  
-----------12-------------------------------------|
--15-12-15----15-12-------12-12-15-15-12-12-------|
--------------------14-12-------------------14-14-|
--------------------------------------------------|
--------------------------------------------------|
--------------------------------------------------|
--------------------------------------------------|


   S  S  S  S  S  S  S  S  S  S  S  S  S  S  S  S  
--------------------------------------------------|
--17-12-------------------12----12-15-12----------|
--------12----------12-14----14----------14-12----|
-----------14----14----------------------------14-|
--------------14----------------------------------|
--------------------------------------------------|
--------------------------------------------------|


   S  S  S  S  S  S  S  S  S  S  S  S  Q     
--------------------------------------------|
--17-17-12----12----------12----12-15-------|
-----------12----12----12----14-------14----|
--------------------14----------------------|
--------------------------------------------|
--------------------------------------------|
--------------------------------------------|


   S  S  S  S  S  S  S  S  S  S  S  S  S  S  S  S  
--------------------------------------------------|
--17-12-------------------12----12-15-12----------|
--------12----------12-14----14----------14-12----|
-----------14----14----------------------------14-|
--------------14----------------------------------|
--------------------------------------------------|
--------------------------------------------------|


   S  S  S  S  S  S  S  S  S  S  S  S  Q     
--------------------------------------------|
--12----------------------------------------|
-----14-12-14-12-------------------12-------|
-----------------14-12----------12----14----|
-----------------------14-12-14-------------|
--------------------------------------------|
--------------------------------------------|


   E   E   S  S  S  S  E   E   S  S  S  S  
------------------------------------------|
------------------------------------------|
--14--14--14-12-------14--14--14-12-------|
----------------15-12---------------15-12-|
------------------------------------------|
------------------------------------------|
------------------------------------------|


   E   E   S  S  S  S  S  S  S  S  Q     
----------------------------------------|
----------------------------------------|
--14--14--14-12-------12----12-14-------|
----------------15-12----15-------12----|
----------------------------------------|
----------------------------------------|
----------------------------------------|


   E   E   S  S  S  S  E   E   S  S  E   
----------------------------------------|
----------------------------------------|
--14--14--14-12-------14--14--14-12-----|
----------------15-12---------------15--|
----------------------------------------|
----------------------------------------|
----------------------------------------|


   S  S  S  S  S  S  S  S  S  S  S  S  S  S  S  S  
-----------------------------------------13----13-|
-----------------------------13----13-15----15----|
-----------------12----12-15----15----------------|
--12-15-12-15-14----14----------------------------|
--------------------------------------------------|
--------------------------------------------------|
--------------------------------------------------|


   E   E   S  S  S  S  E   E   S  S  S  S  
------------------------------------------|
------------------------------------------|
--14--14--14-12-------14--14--14-12-------|
----------------15-12---------------15-12-|
------------------------------------------|
------------------------------------------|
------------------------------------------|


   E   E   S  S  S  S  S  S  S  S  Q     
----------------------------------------|
----------------------------------------|
--14--14--14-12-------12----12-14-------|
----------------15-12----15-------12----|
----------------------------------------|
----------------------------------------|
----------------------------------------|


   E   E   S  S  S  S  E   E   S  S  E   
----------------------------------------|
----------------------------------------|
--14--14--14-12-------14--14--14-12-----|
----------------15-12---------------15--|
----------------------------------------|
----------------------------------------|
----------------------------------------|


   S  S  S  S  S  S  S  S  S  S  S  S  Q     
-----------------13----------------13-15----|
--------------15----15-13-15-13-15----------|
--14-12-14-12-------------------------------|
--------------------------------------------|
--------------------------------------------|
--------------------------------------------|
--------------------------------------------|


     PM PM PM PM PM PM PM PM PM PM PM PM PM PM  
  E  S  S  S  S  S  S  S  S  S  S  S  S  S  S   
-----------------------------------------------|
-----------------------------------------------|
--9--------------------------------------------|
--9--------------------------------------------|
--7--7--7--7--7--7--7--7--7--7--7--7--7--7--7--|
-----------------------------------------------|
-----------------------------------------------|


  PM PM    PM PM PM PM              
  S  S  E  S  S  S  S   Q     Q     
-----------------------------------|
-----------------------------------|
--------9--------------------------|
--------9--------------10----10----|
--7--7--7--7--7--7--7--10----10----|
------------------------8-----8----|
-----------------------------------|


     PM PM PM PM    PM PM PM PM PM PM PM PM  
  E  S  S  S  S  E  S  S  S  S  S  S  S  S   
--------------------------------------------|
--------------------------------------------|
--9--------------9--------------------------|
--9--------------9--------------------------|
--7--7--7--7--7--7--7--7--7--7--7--7--7--7--|
--------------------------------------------|
--------------------------------------------|


  PM PM    PM PM PM PM              
  S  S  E  S  S  S  S   Q     Q     
-----------------------------------|
-----------------------------------|
--------9--------------------------|
--------9--------------10----10----|
--7--7--7--7--7--7--7--10----10----|
------------------------8-----8----|
-----------------------------------|


     PM PM PM PM PM PM PM PM PM PM PM PM PM PM  
  E  S  S  S  S  S  S  S  S  S  S  S  S  S  S   
-----------------------------------------------|
-----------------------------------------------|
--9--------------------------------------------|
--9--------------------------------------------|
--7--7--7--7--7--7--7--7--7--7--7--7--7--7--7--|
-----------------------------------------------|
-----------------------------------------------|


  PM PM    PM PM PM PM              
  S  S  E  S  S  S  S   Q     Q     
-----------------------------------|
-----------------------------------|
--------9--------------------------|
--------9--------------10----10----|
--7--7--7--7--7--7--7--10----10----|
------------------------8-----8----|
-----------------------------------|


     PM PM PM PM    PM PM PM PM PM PM PM PM  
  E  S  S  S  S  E  S  S  S  S  S  S  S  S   
--------------------------------------------|
--------------------------------------------|
--9--------------9--------------------------|
--9--------------9--------------------------|
--7--7--7--7--7--7--7--7--7--7--7--7--7--7--|
--------------------------------------------|
--------------------------------------------|


  PM PM    PM PM PM PM                     PM        PM PM  
  S  S  E  S  S  S  S   Q     Q       Q    E  Q.     E  E   
-----------------------------------|-----------------------|
-----------------------------------|-----------------------|
--------9--------------------------|--9-------7------------|
--------9--------------10----10----|--9----9--7------7--7--|
--7--7--7--7--7--7--7--10----10----|--7----7--5------5--5--|
------------------------8-----8----|-----------------------|
-----------------------------------|-----------------------|


       PM        PM PM                                               
  Q    E  Q.     E  E     Q    E  Q.     Q       H        E  Q.      
-----------------------|----------------------|---------------------|
-----------------------|----------------------|---------------------|
--5--------------------|----------------------|---------------------|
--5----5--5------------|--7-------5------7----|--9--------9---------|
--3----3--5------5--5--|--7----7--5------7----|--9--------9---------|
----------3------3--3--|--5----5--3------5----|--7--------7---------|
-----------------------|----------------------|---------------------|


                PH                       PH      PH      PH    
   E  Q    E    E    E  E  E     E  E    E  E    E  E    Q     
------------------------------|-------------------------------|
------------------------------|--------<>5--5--<>6--6--<>5----|
--/7--7----5--<>7br--L--7--5--|--7--7-------------------------|
------------------------------|-------------------------------|
------------------------------|-------------------------------|
------------------------------|-------------------------------|
------------------------------|-------------------------------|


           PH     PH    PH     PH       PH    \2              PH    PH  
    Q      E      E     E      E  E     E     H        Q      E     E   
-------------------------------------------|---------------------------|
--/10----<>8s--<>12--<>10s--<>13-----------|---------------------------|
----------------------------------9--<>10--|--L--------L----<>7s--<>9--|
-------------------------------------------|---------------------------|
-------------------------------------------|---------------------------|
-------------------------------------------|---------------------------|
-------------------------------------------|---------------------------|


   E   E   E   E   E   E    E   E    
----------------------10s--12--13S--|
--------------10--11----------------|
--10p--9--10------------------------|
------------------------------------|
------------------------------------|
------------------------------------|
------------------------------------|


     PH                               PH    
     E    E   S   S   S  S  E   E     Q     
--<>17s--13--12h-13p-12----12--------------|
------------------------13-----13--<>10----|
-------------------------------------------|
-------------------------------------------|
-------------------------------------------|
-------------------------------------------|
-------------------------------------------|


   |--3--|  |--3--|                                      
   S  S  S  S  S  S  S  S  S  S  S  S  S  S  S  S  S  S  
--------------------------------------------------------|
--------------------------------------------------------|
-----------------------------------------------14-16-19-|
--------------------14-16-19----------13-15-18----------|
-----------12-14-17----------12-14-17-------------------|
--12-13-17----------------------------------------------|
--------------------------------------------------------|


   |--3--|  |--3--|  |--3--|                                    
   S  S  S  S  S  S  S  S  S  S  S  S  S  S  S  S  S  T   T  S  
--------------------------------------------------17-18s-19-22-|
--------------------------------------17-18-22-18--------------|
-----------14-16-18----------14-15-19--------------------------|
--14-15-17----------14-15-19-----------------------------------|
---------------------------------------------------------------|
---------------------------------------------------------------|
---------------------------------------------------------------|


   |---3---|   |---3---|                            
   E   E   E   E   E   E   S  S  S   S  S  S  S  S  
--17----------------------17----17s-18----17-------|
------18--------------18-----18--------20----20-18-|
----------19------19-------------------------------|
--------------18-----------------------------------|
---------------------------------------------------|
---------------------------------------------------|
---------------------------------------------------|


                                          \0/   
                |---3---|                       
   S  S  S   S  E   E   E   S  S  S  S  S E.    
-----------------------------------------------|
--20-18--------17-------------------17-18-L~---|
--------21s-19-----19--17-----17-19------------|
---------------------------20------------------|
-----------------------------------------------|
-----------------------------------------------|
-----------------------------------------------|


         |--3--|  |---3---|   |---3---|   |---3---|   
   S  S  S  S  S  E   E   E   E   E   E   E   E   E   
--------------17-20--19--17--------------------------|
-----------18----------------20--18--17--------------|
--------16-------------------------------19--18--17--|
-----19----------------------------------------------|
--19-------------------------------------------------|
-----------------------------------------------------|
-----------------------------------------------------|


   S   S   S   S  S   S   S   S  S   S   S   S  Q     
-----------------------------------------------17----|
--------------------------------15h-17p-15h-17-------|
-----------------14h-15p-14h-15----------------------|
--14h-15p-14h-15-------------------------------------|
-----------------------------------------------------|
-----------------------------------------------------|
-----------------------------------------------------|


   T          T          T          T                                  
   |---6---|  |---6---|  |---6---|  |---6---|                          
   S   S   S  S   S   S  S   S   S  S   S   S  E    S   S  S   S   E   
--22p-18p-17-22p-18p-17-22p-18p-17-22p-18p-17--x/--18p-17--x/-18p-17--|
----------------------------------------------------------------------|
----------------------------------------------------------------------|
----------------------------------------------------------------------|
----------------------------------------------------------------------|
----------------------------------------------------------------------|
----------------------------------------------------------------------|


   T      T      T      T      T      T                           
   |---6--|   |---6--|  |---6--|   |---6--|                       
   S   S  S   S  S   S  S   S  S   S  S   S  E    S   S  E    E   
--17p-13-17p-13-17p-13-17p-12-17p-12-17p-12--x/--13p-12--x/--13--|
-----------------------------------------------------------------|
-----------------------------------------------------------------|
-----------------------------------------------------------------|
-----------------------------------------------------------------|
-----------------------------------------------------------------|
-----------------------------------------------------------------|


                            |---3---|               
    S  S  S  S  S  S  S  S  E   E   E   S  S  S  S  
--/18-18-18-17-17-18-17----17----------------------|
------------------------18-----18--17--18-17-------|
---------------------------------------------19-17-|
---------------------------------------------------|
---------------------------------------------------|
---------------------------------------------------|
---------------------------------------------------|


                            PH              
   |---6---|                                
   E   E   E  S  S  S  S    Q     Q         
-------------------------------------------|
------17--18--L-17-18-17-<>17b----Lpbr~----|
--19---------------------------------------|
-------------------------------------------|
-------------------------------------------|
-------------------------------------------|
-------------------------------------------|


   PM PM PM PM PM PM PM PM PM PM PM PM PM PM PM PM 
   S  S  S  S  S  S  S  S  S  S  S  S  S  S  S  S  
--------------------------------------------------|
--------------------------------------------------|
--------------10-10-------14----------10-10-------|
--12-12-12-12-------12-12----12-12-12-------12-12-|
--------------------------------------------------|
--------------------------------------------------|
--------------------------------------------------|


   T     T     T     T                        
   S  S  S  S  S  S  S  S  S  S  S  S  Q      
---------------------------------------------|
--------------------------15-13--------------|
--15p-9-14p-9-15p-9-17p-9-------15-14-15~----|
---------------------------------------------|
---------------------------------------------|
---------------------------------------------|
---------------------------------------------|


   S   S  S  S   S   S  S  S   S   S  S  S   S  S  S S  
--17p-13----13h-15p-12----12h-13p-10----10h-12p-8----8-|
---------15------------13------------11-----------10---|
-------------------------------------------------------|
-------------------------------------------------------|
-------------------------------------------------------|
-------------------------------------------------------|
-------------------------------------------------------|


     TH \1/ \1/ \1/    TH \1/ \1/ \1/  
     E  E   E   E      E  E   E   E    
--------------------------------------|
--<>13--L---L---L---<>12--L---L---L---|
--------------------------------------|
--------------------------------------|
--------------------------------------|
--------------------------------------|
--------------------------------------|


   E   E   S  S  S  S  E   E   S  S  S  S  
--10--10----------------------------------|
----------13-10-------10--10--------------|
----------------12-10---------12-10-------|
------------------------------------12-10-|
------------------------------------------|
------------------------------------------|
------------------------------------------|


   S  S  S  S  S  S  S  S  S  S  S  S  S  S  S  S  
--------------------------------------------------|
--------------------------------------------------|
--------------12-------12-14----12-14-15-12-14-15-|
--14-12-14-15----14-15-------15-------------------|
--------------------------------------------------|
--------------------------------------------------|
--------------------------------------------------|


   S  S  S  S  S  S  S   S  S  S  S  S  S  S  S  S  
--------------13-15-17p-13-------------------------|
--13----13-15--------------13----------------------|
-----14-----------------------14-12----12----12-14-|
------------------------------------15----15-------|
---------------------------------------------------|
---------------------------------------------------|
---------------------------------------------------|


   * w/ Whammy Pedal                                                
   /6                /6 /6 /6 /6 /6 /6  /6 /6  /6 /6 /6 /6  /6 -\6  
   S                 S  S  S  S  S  S   S  S   S  S  S  S   S  E    
-----------------------------13-15-17p-13--------------------------|
--13-------------------13-15--------------15p-13-------------------|
--------------------14---------------------------14----12h-14------|
----------------------------------------------------15--------15~--|
-------------------------------------------------------------------|
-------------------------------------------------------------------|
-------------------------------------------------------------------|


    Q.      Q.      Q           E   E  E      E  Q     Q     
--/22------22------20----|--20g22--20-----20g18--L----17----|
-------------------------|----------------------------------|
-------------------------|----------------------------------|
-------------------------|----------------------------------|
-------------------------|----------------------------------|
-------------------------|----------------------------------|
-------------------------|----------------------------------|


   S  S   S   S  S   S  S   S   S   S   S  S   S  S   S   S  
--17--------------------------------------------------------|
-----20p-18p-17----------------------------------17h-18h-20-|
----------------19p-17--------------------17h-19------------|
-----------------------20p-19p-17h-19h-20-------------------|
------------------------------------------------------------|
------------------------------------------------------------|
------------------------------------------------------------|


                                                    SH     
   T   T   S   S   S   S   S  S   S   S   S   E     Q      
--20h-22p-20h-22p-20h-22p-20-17h-20p-17h-20p-17--<>17~----|
----------------------------------------------------------|
----------------------------------------------------------|
----------------------------------------------------------|
----------------------------------------------------------|
----------------------------------------------------------|
----------------------------------------------------------|


   T              T              T              T              T              T 
   T   T   T   T  T   T   T   T  T   T   T   T  T   T   T   T  T   T   T   T  T 
--------------------------------------------------------------20p-17p-13h-17-20p
--------------------------------22p-18p-15h-18-22p-18p-15h-18-------------------
--22p-19p-15h-19-22p-19p-15h-19-------------------------------------------------
--------------------------------------------------------------------------------
--------------------------------------------------------------------------------
--------------------------------------------------------------------------------
--------------------------------------------------------------------------------


   T              T              T              T              T                
                                                               |---3---|        
   T   T   T   T  T   T   T   T  T   T   T   T  T   T   T   T  S   S   S  E   S 
--------------------------------------------------------------------------------
--------------------------------------------------------------------------------
--22p-19p-15h-19-22p-19p-15h-19-22p-19p-15h-19-22p-19p-15h-19-22p-19p-15-14--14s
--------------------------------------------------------------------------------
--------------------------------------------------------------------------------
--------------------------------------------------------------------------------
--------------------------------------------------------------------------------


   PM PM PM PM PM PM PM PM PM PM PM PM PM PM PM PM 
   S  S  S  S  S  S  S  S  S  S  S  S  S  S  S  S  
--------------------------------------------------|
--------------------------------------------------|
--14-14-------14-14-15-15-17-17-15-15-14-14-------|
--------15-15-------------------------------15-15-|
--------------------------------------------------|
--------------------------------------------------|
--------------------------------------------------|


  S  S S  S S  S S  S E   E  Q        E  E  H.              H        E  Q.      
--x/---x/---x/---x/---x/-----x\----|---------------------|---------------------|
--x/---x/---x/---x/---x/-----x\----|---------------------|---------------------|
--x/---x/---x/---x/---x/-----x\----|--2------------------|--------------2------|
-----------------------------------|--2------------------|--------------2------|
-----------------------------------|--0------------------|--------------0------|
-----------------------------------|---------------------|---------------------|
-----------------------------------|---------------------|---------------------|


  E  E  H.              H        E  Q.        E  E  H.            
---------------------|---------------------|---------------------|
---------------------|---------------------|---------------------|
--7------------------|--------------7------|--5------------------|
--7------------------|--------------7------|--5------------------|
--5------------------|--------------5------|--3------------------|
---------------------|---------------------|---------------------|
---------------------|---------------------|---------------------|


  H        E  Q.        E  E  H.              W                 
---------------------|---------------------|-------------------|
---------------------|---------------------|-------------------|
--------------2------|--7------------------|-------------------|
--------------2------|--7------------------|-------------------|
--------------0------|--5------------------|-------------------|
---------------------|---------------------|-------------------|
---------------------|---------------------|-------------------|


  E  E  H.              H.           Q       E  E  H.            
---------------------|--------------------|---------------------|
---------------------|--------------------|---------------------|
--2------------------|---------------2----|--7------------------|
--2------------------|---------------2----|--7------------------|
--0------------------|---------------0----|--5------------------|
---------------------|--------------------|---------------------|
---------------------|--------------------|---------------------|


  H.           Q       E  E  H.              E  E  H.            
--------------------|---------------------|---------------------|
--------------------|---------------------|---------------------|
---------------5----|--3------------------|--2------------------|
---------------5----|--3------------------|--2------------------|
---------------3----|--1------------------|--0------------------|
--------------------|---------------------|---------------------|
--------------------|---------------------|---------------------|


                             PM PM PM PM      PM PM PM PM       
  E  E  E  E  E  E  E  E     S  S  S  S  Q    S  S  S  S  Q     
--------------------------|------------------------------------|
--------------------------|------------------------------------|
--3-----3-----------3-----|--------------5----------------5----|
--3-----3-----5-----3-----|--------------5----------------5----|
--1-----1-----5-----1-----|--3--3--3--3--3----3--3--3--3--3----|
--------------3-----------|------------------------------------|
--------------------------|------------------------------------|


                                                        PH       
    Q.         E  Q     Q        E   E  E      E  E     Q.       
--/17------17g15--L----------|--15------------------------------|
-----------------------18----|------18-----13g15-----<>18~------|
-----------------------------|----------------------------------|
-----------------------------|----------------------------------|
-----------------------------|----------------------------------|
-----------------------------|----------------------------------|
-----------------------------|----------------------------------|


   T      T      T      T          T      T                          
                        |---3---|                         |---3---|  
   S   S  S   S  S   S  S   S   S  S   S  S   S   S   S   S   S   S  
--------------------------------------------------------------------|
--22p-18-22p-18-22p-18-22p-18p-17-----------------------------------|
----------------------------------22p-21-22p-21p-17h-21p-17h-21p-17-|
--------------------------------------------------------------------|
--------------------------------------------------------------------|
--------------------------------------------------------------------|
--------------------------------------------------------------------|


   E      E  E      E  E   Q.       
--20--20g22-----20g17--------------|
--------------------------20~------|
-----------------------------------|
-----------------------------------|
-----------------------------------|
-----------------------------------|
-----------------------------------|


                           T          T          T          T          T        
                           |---3---|  |---3---|  |---3---|  |---3---|  |---3---|
   S  S  S  S  S  S  S  S  T   T   T  T   T   T  T   T   T  T   T   T  T   T   T
--20-17----------15-17-18-------------------------------------------------------
--------18-15-18----------22p-18p-15-22p-18p-15-23p-18p-15-23p-18p-15-22p-18p-15
--------------------------------------------------------------------------------
--------------------------------------------------------------------------------
--------------------------------------------------------------------------------
--------------------------------------------------------------------------------
--------------------------------------------------------------------------------


                           T         T         T         T         T         T  
                           |---3--|  |---3--|  |---3--|  |---3--|  |---3--|  |--
   S  S  S  S  S  S  S  S  T   T  T  T   T  T  T   T  T  T   T  T  T   T  T  T  
--------------------------------------------------------------------------------
--13-10-------------10-11-------------------------------------------------------
--------10----10-12-------14p-10p-7-14p-10p-7-15p-10p-7-15p-10p-7-14p-10p-7-14p-
-----------12-------------------------------------------------------------------
--------------------------------------------------------------------------------
--------------------------------------------------------------------------------
--------------------------------------------------------------------------------


   E    E   E   E    E   E   E    E      E    E    E   E    E   E   E   E   
-------------------------------------|-------------------------------------|
-------------------------------------|-----------------------------13--15--|
--17s--14--12--14p--12------12h--14--|--14p--12s--10--10s--12--14----------|
------------------------15-----------|-------------------------------------|
-------------------------------------|-------------------------------------|
-------------------------------------|-------------------------------------|
-------------------------------------|-------------------------------------|


   T         T         T         T         T         T         T         T      
   |---3--|  |---3--|  |---3--|  |---3--|  |---3--|  |---3--|  |---3--|  |---3--
   T   T  T  T   T  T  T   T  T  T   T  T  T   T  T  T   T  T  T   T  T  T   T  
--------------------------------------------------------------------------------
--13p-10p-6-13p-10p-6-15p-10p-6-15p-10p-6-13p-10p-6-13p-10p-6-15p-10p-6-15p-10p-
--------------------------------------------------------------------------------
--------------------------------------------------------------------------------
--------------------------------------------------------------------------------
--------------------------------------------------------------------------------
--------------------------------------------------------------------------------


   T         T         T         T         T         T         T         T      
   |---3--|  |---3--|  |---3--|  |---3--|  |---3--|  |---3--|  |---3--|  |---3--
   T   T  T  T   T  T  T   T  T  T   T  T  T   T  T  T   T  T  T   T  T  T   T  
--17p-13p-8-17p-13p-8-18p-13p-8-18p-13p-8-17p-13p-8-17p-13p-8-18p-13p-8-18p-13p-
--------------------------------------------------------------------------------
--------------------------------------------------------------------------------
--------------------------------------------------------------------------------
--------------------------------------------------------------------------------
--------------------------------------------------------------------------------
--------------------------------------------------------------------------------


   T         T         T         T         T         T         T         T      
   |---3--|  |---3--|  |---3--|  |---3--|  |---3--|  |---3--|  |---3--|  |---3--
   T   T  T  T   T  T  T   T  T  T   T  T  T   T  T  T   T  T  T   T  T  T   T  
--15p-10p-6-15p-10p-6-17p-10p-6-17p-10p-6-15p-10p-6-15p-10p-6-13p-10p-6-13p-10p-
--------------------------------------------------------------------------------
--------------------------------------------------------------------------------
--------------------------------------------------------------------------------
--------------------------------------------------------------------------------
--------------------------------------------------------------------------------
--------------------------------------------------------------------------------


   T         T         T         T         T         T         T         T      
   |---3--|  |---3--|  |---3--|  |---3--|  |---3--|  |---3--|  |---3--|  |---3--
   T   T  T  T   T  T  T   T  T  T   T  T  T   T  T  T   T  T  T   T  T  T   T  
--15p-12p-8-15p-12p-8-17p-12p-8-17p-12p-8-18p-12p-8-18p-12p-8-15p-12p-8-15p-12p-
--------------------------------------------------------------------------------
--------------------------------------------------------------------------------
--------------------------------------------------------------------------------
--------------------------------------------------------------------------------
--------------------------------------------------------------------------------
--------------------------------------------------------------------------------


   S  S  S  S  S  S  S  S  S  S  S  S  S  S  S  S  
--17-15----------------------------------------15-|
--------18-17-15----------------------15-17-18----|
-----------------17-15----------15-17-------------|
-----------------------19-17-19-------------------|
--------------------------------------------------|
--------------------------------------------------|
--------------------------------------------------|


            SH                           
   E        Q     E   S  S  S  S  Q      
--17--17g<>18----17--17-15--------------|
---------------------------18-17-15~----|
----------------------------------------|
----------------------------------------|
----------------------------------------|
----------------------------------------|
----------------------------------------|


   S   S   S   S   S   S   S   S  S   S   S   S   S   S   S   S  
--12h-15p-12h-15p-12h-15p-12h-15-15h-18p-15h-18p-15h-18p-15h-18-|
----------------------------------------------------------------|
----------------------------------------------------------------|
----------------------------------------------------------------|
----------------------------------------------------------------|
----------------------------------------------------------------|
----------------------------------------------------------------|


                                            \2                             
   |-------5-------|   |-------5-------|                                   
   S   S   S   S   S   S   S   S   S   S    Q.     E     W                 
--22p-20h-22p-20h-22p-20h-22p-20h-22p-20-<>20------L--|-------------------|
------------------------------------------------------|-------------------|
------------------------------------------------------|--7----------------|
------------------------------------------------------|--7----------------|
------------------------------------------------------|--5----------------|
------------------------------------------------------|-------------------|
------------------------------------------------------|-------------------|


  W                   W                   W                   W                 
-------------------|-------------------|-------------------|-------------------|
-------------------|-------------------|-------------------|-------------------|
--L----------------|--5----------------|--L----------------|--5----------------|
--L----------------|--5----------------|--L----------------|--5----------------|
--L----------------|--3----------------|--L----------------|--3----------------|
-------------------|-------------------|-------------------|-------------------|
-------------------|-------------------|-------------------|-------------------|


  W                   W                   H        Q     Q      
-------------------|-------------------|-----------------------|
-------------------|-------------------|-----------------------|
--L----------------|--7----------------|--L--------------------|
--L----------------|--7----------------|--L--------x\----x\----|
--L----------------|--5----------------|--L--------x\----x\----|
-------------------|-------------------|-----------x\----x\----|
-------------------|-------------------|-----------------------|


  W                   W                   W                   W                 
-------------------|-------------------|-------------------|-------------------|
-------------------|-------------------|-------------------|-------------------|
--7----------------|--L----------------|--5----------------|--L----------------|
--7----------------|--L----------------|--5----------------|--L----------------|
--5----------------|--L----------------|--3----------------|--L----------------|
-------------------|-------------------|-------------------|-------------------|
-------------------|-------------------|-------------------|-------------------|


  W                   W                   W                   W                 
-------------------|-------------------|-------------------|-------------------|
-------------------|-------------------|-------------------|-------------------|
--5----------------|--L----------------|--7----------------|--L----------------|
--5----------------|--L----------------|--7----------------|--L----------------|
--3----------------|--L----------------|--5----------------|--L----------------|
-------------------|-------------------|-------------------|-------------------|
-------------------|-------------------|-------------------|-------------------|


     PM PM PM PM PM PM PM PM PM PM PM PM PM PM  
  E  S  S  S  S  S  S  S  S  S  S  S  S  S  S   
-----------------------------------------------|
-----------------------------------------------|
--2--------------------------------------------|
--2--------------------------------------------|
--0--0--0--0--0--0--0--0--0--0--0--0--0--0--0--|
-----------------------------------------------|
-----------------------------------------------|


     PM PM PM PM PM PM PM PM PM PM PM PM PM PM  
  E  S  S  S  S  S  S  S  S  S  S  S  S  S  S   
-----------------------------------------------|
-----------------------------------------------|
--3--------------------------------------------|
--3--------------------------------------------|
--1--1--1--1--1--1--1--1--1--1--1--1--1--1--1--|
-----------------------------------------------|
-----------------------------------------------|


     PM PM PM PM PM PM PM PM PM PM PM PM PM PM  
  E  S  S  S  S  S  S  S  S  S  S  S  S  S  S   
-----------------------------------------------|
-----------------------------------------------|
--7--------------------------------------------|
--7--------------------------------------------|
--5--5--5--5--5--5--5--8--8--5--5--8--8--5--5--|
-----------------------------------------------|
-----------------------------------------------|


     PM PM PM PM PM PM PM PM PM PM PM PM PM PM                      
  E  S  S  S  S  S  S  S  S  S  S  S  S  S  S     W                 
-----------------------------------------------|-------------------|
-----------------------------------------------|-------------------|
--5--------------------------------------------|--3----------------|
--5--------------------------------------------|--3----------------|
--3--3--3--3--3--3--3--7--7--3--3--7--7--3--3--|--1----------------|
-----------------------------------------------|-------------------|
-----------------------------------------------|-------------------|


  W                   E  E  H.              W                 
-------------------|---------------------|-------------------|
-------------------|---------------------|-------------------|
--2----------------|--3------------------|-------------------|
--2----------------|--3------------------|-------------------|
--0----------------|--1------------------|-------------------|
-------------------|---------------------|-------------------|
-------------------|---------------------|-------------------|


               PM PM                   PM PM PM                      
  H.           E  E     Q.     E   E   E  E  E     W                 
---------------------|--------------------------|-------------------|
---------------------|--------------------------|-------------------|
--7------------------|--7------7----------------|--3----------------|
--7------------7--7--|--7------7--10--10--7--5--|--3----------------|
--5------------5--5--|--5------5---8---8--5--3--|--1----------------|
---------------------|--------------------------|-------------------|
---------------------|--------------------------|-------------------|


  PM PM PM PM PM PM PM PM PM   SH    
  S  S  E  S  S  E  S  S  E    Q     
------------------------------------|
------------------------------------|
------------------------------------|
-----------------------------<>5----|
--3--3--3--3--3--3--3--3--3---------|
------------------------------------|
------------------------------------|


     PM PM PM PM PM PM PM PM PM PM PM PM PM PM  
  E  S  S  S  S  S  S  S  S  S  S  S  S  S  S   
-----------------------------------------------|
-----------------------------------------------|
--7--------------------------------------------|
--7--------------------------------------------|
--5--5--5--5--5--5--5--5--5--5--5--5--5--5--5--|
-----------------------------------------------|
-----------------------------------------------|


  PM PM PM PM PM PM PM PM PM PM PM PM PM PM PM PM                      
  S  S  S  S  S  S  S  S  S  S  S  S  S  S  S  S     W                 
--------------------------------------------------|-------------------|
--------------------------------------------------|-------------------|
--------------------------------------------------|--2----------------|
--------------------------------------------------|--2----------------|
--5--5--5--5--5--5--5--5--5--5--5--5--5--5--5--5--|--0----------------|
--------------------------------------------------|-------------------|
--------------------------------------------------|-------------------|


  PM PM PM PM PM PM PM PM PM PM  
  S  S  E  E  E  S  S  E  E  E   
--------------------------------|
--------------------------------|
--------------------------------|
--------3--3--3--------5--3--5--|
--1--1--1--0--1--3--3--3--1--3--|
--------------------------------|
--------------------------------|


     PM PM PM PM PM PM PM PM PM PM PM PM PM PM  
  E  S  S  S  S  S  S  S  S  S  S  S  S  S  S   
-----------------------------------------------|
-----------------------------------------------|
-----------------------------------------------|
--3--------------------------------------------|
--3--------------------------------------------|
--1--1--1--1--1--1--1--1--1--1--1--1--1--1--1--|
-----------------------------------------------|


  PM PM PM PM PM PM PM PM PM PM PM PM PM PM PM PM           PM PM PM PM PM PM  
  S  S  S  S  S  S  S  S  S  S  S  S  S  S  S  S     Q.     S  S  E  E  E  E   
--------------------------------------------------|---------------------------|
--------------------------------------------------|---------------------------|
--------------------------------------------------|--3------------------------|
--------------------------------------------------|--3------------3--3--3--3--|
--------------------------------------------------|--1------1--1--1--1--0--1--|
--1--1--1--1--1--1--1--1--1--1--1--1--1--1--1--1--|---------------------------|
--------------------------------------------------|---------------------------|


                                PM PM PM PM PM PM PM PM PM PM PM PM PM PM  
  Q.     E   E  E   E  E     E  S  S  S  S  S  S  S  S  S  S  S  S  S  S   
--------------------------|-----------------------------------------------|
--------------------------|-----------------------------------------------|
--5------5s--7--5s--7--5--|--2--------------------------------------------|
--5------x------x------x--|--2--------------------------------------------|
--3------3s--5--3s--5--3--|--0--0--0--0--0--0--0--0--0--0--0--0--0--0--0--|
--------------------------|-----------------------------------------------|
--------------------------|-----------------------------------------------|


     PM PM PM PM PM PM PM PM PM PM PM PM PM PM  
  E  S  S  S  S  S  S  S  S  S  S  S  S  S  S   
-----------------------------------------------|
-----------------------------------------------|
--3--------------------------------------------|
--3--------------------------------------------|
--1--1--1--1--1--1--1--1--1--1--1--1--1--1--1--|
-----------------------------------------------|
-----------------------------------------------|


   S  S  S  S  S  S  S  S  S  S  S  S  S  S  S  S  
--10-10-------------------------------------------|
--------10-10-------10-10-------------------------|
--------------12-12-------10-10-------10-10-12-12-|
--------------------------------12-12-------------|
--------------------------------------------------|
--------------------------------------------------|
--------------------------------------------------|


   S  S  S  S  S  S  S  S  S  S  S  S  S  S  S  S     W                 
--------------------------10-10-------10-10-13-13-|--10----------------|
--10-10-------10-10-13-13-------13-13-------------|--------------------|
--------12-12-------------------------------------|--------------------|
--------------------------------------------------|--------------------|
--------------------------------------------------|--------------------|
--------------------------------------------------|--------------------|
--------------------------------------------------|--------------------|


  H         Q     Q        W                    Q.      Q.      Q     
--L--------12----13----|--13----------------|--15------13------12----|
-----------------------|--------------------|------------------------|
-----------------------|--------------------|------------------------|
-----------------------|--------------------|------------------------|
-----------------------|--------------------|------------------------|
-----------------------|--------------------|------------------------|
-----------------------|--------------------|------------------------|


   E   E   H.              W                 
--13--12--10------------|--L----------------|
------------------------|-------------------|
------------------------|-------------------|
------------------------|-------------------|
------------------------|-------------------|
------------------------|-------------------|
------------------------|-------------------|


   S  S  S  S  S  S  S  S  S  S  S  S  S  S  S  S  
--10-10-------------------------------------------|
--------10-10-------10-10-------------------------|
--------------12-12-------10-10-------10-10-12-12-|
--------------------------------12-12-------------|
--------------------------------------------------|
--------------------------------------------------|
--------------------------------------------------|


   S  S  S  S  S  S  S  S  S  S  S  S  S  S  S  S  
--------------------------10-10-------10-10-13-13-|
--10-10-------10-10-13-13-------13-13-------------|
--------12-12-------------------------------------|
--------------------------------------------------|
--------------------------------------------------|
--------------------------------------------------|
--------------------------------------------------|


   T              T              T              T              T              T 
   T   T   T   T  T   T   T   T  T   T   T   T  T   T   T   T  T   T   T   T  T 
--------------------------------------------------------------------------------
--17p-14p-10h-14-17p-14p-10h-14-17p-14p-10h-14-17p-14p-10h-14-17p-14p-10h-14-17p
--------------------------------------------------------------------------------
--------------------------------------------------------------------------------
--------------------------------------------------------------------------------
--------------------------------------------------------------------------------
--------------------------------------------------------------------------------


   tr        tr       tr        tr        
   Q         Q        Q         Q         
-----------------------------------------|
--17(10)----17(8)----17(10)----17(13)----|
-----------------------------------------|
-----------------------------------------|
-----------------------------------------|
-----------------------------------------|
-----------------------------------------|


   S  S  S  S  S  S  S  S  S  S  S  S  S  S  S  S  
-----------------------------------------------13-|
-----------------------------------13-15-13-15----|
--------------12----12-14-14-12-14----------------|
--12----12-15----15-------------------------------|
-----15-------------------------------------------|
--------------------------------------------------|
--------------------------------------------------|


   S  S  S  S  S  S  S  S  S  S  S  S  S  S  S  S     E  E  H.            
--17-15----------15-------------------------------|----------------------|
--------18-15-17----17----15----------------------|----------------------|
-----------------------17----17-15-14-17-15-14----|--14------------------|
-----------------------------------------------17-|----------------------|
--------------------------------------------------|----------------------|
--------------------------------------------------|----------------------|
--------------------------------------------------|----------------------|


   E   Q.     H           
------------------------||
--15--15------L\--------||
------------------------||
------------------------||
------------------------||
------------------------||
------------------------||


***************************************************************************************
#######################################################################################
***************************************************************************************


Sam Totman | Overdub



E||-------|-------|-------|-------|-------|-------|-------|-------|-------|
B||-------|-------|-------|-------|-------|-------|-------|-------|-------|
G||-------|-------|-------|-------|-------|-------|-------|-------|-------|
D||-------|-------|-------|-------|-------|-------|-------|-------|-------|
A||-------|-------|-------|-------|-------|-------|-------|-------|-------|
E||-------|-------|-------|-------|-------|-------|-------|-------|-------|
B||-------|-------|-------|-------|-------|-------|-------|-------|-------|


-------|-------|-------|-------|-------|-------|-------|-------|-------|-------|
-------|-------|-------|-------|-------|-------|-------|-------|-------|-------|
-------|-------|-------|-------|-------|-------|-------|-------|-------|-------|
-------|-------|-------|-------|-------|-------|-------|-------|-------|-------|
-------|-------|-------|-------|-------|-------|-------|-------|-------|-------|
-------|-------|-------|-------|-------|-------|-------|-------|-------|-------|
-------|-------|-------|-------|-------|-------|-------|-------|-------|-------|


-------|-------|-------|-------|-------|-------|-------|-------|-------|-------|
-------|-------|-------|-------|-------|-------|-------|-------|-------|-------|
-------|-------|-------|-------|-------|-------|-------|-------|-------|-------|
-------|-------|-------|-------|-------|-------|-------|-------|-------|-------|
-------|-------|-------|-------|-------|-------|-------|-------|-------|-------|
-------|-------|-------|-------|-------|-------|-------|-------|-------|-------|
-------|-------|-------|-------|-------|-------|-------|-------|-------|-------|


-------|-------|-------|-------|-------|-------|-------|-------|-------|-------|
-------|-------|-------|-------|-------|-------|-------|-------|-------|-------|
-------|-------|-------|-------|-------|-------|-------|-------|-------|-------|
-------|-------|-------|-------|-------|-------|-------|-------|-------|-------|
-------|-------|-------|-------|-------|-------|-------|-------|-------|-------|
-------|-------|-------|-------|-------|-------|-------|-------|-------|-------|
-------|-------|-------|-------|-------|-------|-------|-------|-------|-------|


-------|-------|-------|-------|-------|-------|-------|-------|-------|-------|
-------|-------|-------|-------|-------|-------|-------|-------|-------|-------|
-------|-------|-------|-------|-------|-------|-------|-------|-------|-------|
-------|-------|-------|-------|-------|-------|-------|-------|-------|-------|
-------|-------|-------|-------|-------|-------|-------|-------|-------|-------|
-------|-------|-------|-------|-------|-------|-------|-------|-------|-------|
-------|-------|-------|-------|-------|-------|-------|-------|-------|-------|


-------|-------|-------|-------|-------|-------|-------|-------|-------|-------|
-------|-------|-------|-------|-------|-------|-------|-------|-------|-------|
-------|-------|-------|-------|-------|-------|-------|-------|-------|-------|
-------|-------|-------|-------|-------|-------|-------|-------|-------|-------|
-------|-------|-------|-------|-------|-------|-------|-------|-------|-------|
-------|-------|-------|-------|-------|-------|-------|-------|-------|-------|
-------|-------|-------|-------|-------|-------|-------|-------|-------|-------|


-------|-------|-------|-------|-------|-------|-------|-------|-------|-------|
-------|-------|-------|-------|-------|-------|-------|-------|-------|-------|
-------|-------|-------|-------|-------|-------|-------|-------|-------|-------|
-------|-------|-------|-------|-------|-------|-------|-------|-------|-------|
-------|-------|-------|-------|-------|-------|-------|-------|-------|-------|
-------|-------|-------|-------|-------|-------|-------|-------|-------|-------|
-------|-------|-------|-------|-------|-------|-------|-------|-------|-------|


-------|-------|-------|-------|-------|-------|-------|-------|-------|-------|
-------|-------|-------|-------|-------|-------|-------|-------|-------|-------|
-------|-------|-------|-------|-------|-------|-------|-------|-------|-------|
-------|-------|-------|-------|-------|-------|-------|-------|-------|-------|
-------|-------|-------|-------|-------|-------|-------|-------|-------|-------|
-------|-------|-------|-------|-------|-------|-------|-------|-------|-------|
-------|-------|-------|-------|-------|-------|-------|-------|-------|-------|


-------|-------|-------|-------|-------|-------|-------|-------|-------|-------|
-------|-------|-------|-------|-------|-------|-------|-------|-------|-------|
-------|-------|-------|-------|-------|-------|-------|-------|-------|-------|
-------|-------|-------|-------|-------|-------|-------|-------|-------|-------|
-------|-------|-------|-------|-------|-------|-------|-------|-------|-------|
-------|-------|-------|-------|-------|-------|-------|-------|-------|-------|
-------|-------|-------|-------|-------|-------|-------|-------|-------|-------|


-------|-------|-------|-------|-------|-------|-------|-------|-------|-------|
-------|-------|-------|-------|-------|-------|-------|-------|-------|-------|
-------|-------|-------|-------|-------|-------|-------|-------|-------|-------|
-------|-------|-------|-------|-------|-------|-------|-------|-------|-------|
-------|-------|-------|-------|-------|-------|-------|-------|-------|-------|
-------|-------|-------|-------|-------|-------|-------|-------|-------|-------|
-------|-------|-------|-------|-------|-------|-------|-------|-------|-------|


-------|-------|-------|-------|-------|-------|-------|-------|-------|-------|
-------|-------|-------|-------|-------|-------|-------|-------|-------|-------|
-------|-------|-------|-------|-------|-------|-------|-------|-------|-------|
-------|-------|-------|-------|-------|-------|-------|-------|-------|-------|
-------|-------|-------|-------|-------|-------|-------|-------|-------|-------|
-------|-------|-------|-------|-------|-------|-------|-------|-------|-------|
-------|-------|-------|-------|-------|-------|-------|-------|-------|-------|


-------|-------|-------|-------|-------|-------|-------|-------|-------|-------|
-------|-------|-------|-------|-------|-------|-------|-------|-------|-------|
-------|-------|-------|-------|-------|-------|-------|-------|-------|-------|
-------|-------|-------|-------|-------|-------|-------|-------|-------|-------|
-------|-------|-------|-------|-------|-------|-------|-------|-------|-------|
-------|-------|-------|-------|-------|-------|-------|-------|-------|-------|
-------|-------|-------|-------|-------|-------|-------|-------|-------|-------|


-------|-------|-------|-------|-------|-------|-------|-------|-------|-------|
-------|-------|-------|-------|-------|-------|-------|-------|-------|-------|
-------|-------|-------|-------|-------|-------|-------|-------|-------|-------|
-------|-------|-------|-------|-------|-------|-------|-------|-------|-------|
-------|-------|-------|-------|-------|-------|-------|-------|-------|-------|
-------|-------|-------|-------|-------|-------|-------|-------|-------|-------|
-------|-------|-------|-------|-------|-------|-------|-------|-------|-------|


-------|-------|-------|-------|-------|-------|-------|-------|-------|-------|
-------|-------|-------|-------|-------|-------|-------|-------|-------|-------|
-------|-------|-------|-------|-------|-------|-------|-------|-------|-------|
-------|-------|-------|-------|-------|-------|-------|-------|-------|-------|
-------|-------|-------|-------|-------|-------|-------|-------|-------|-------|
-------|-------|-------|-------|-------|-------|-------|-------|-------|-------|
-------|-------|-------|-------|-------|-------|-------|-------|-------|-------|


-------|-------|-------|-------|-------|-------|-------|-------|-------|-------|
-------|-------|-------|-------|-------|-------|-------|-------|-------|-------|
-------|-------|-------|-------|-------|-------|-------|-------|-------|-------|
-------|-------|-------|-------|-------|-------|-------|-------|-------|-------|
-------|-------|-------|-------|-------|-------|-------|-------|-------|-------|
-------|-------|-------|-------|-------|-------|-------|-------|-------|-------|
-------|-------|-------|-------|-------|-------|-------|-------|-------|-------|


-------|-------|-------|-------|-------|-------|-------|-------|-------|-------|
-------|-------|-------|-------|-------|-------|-------|-------|-------|-------|
-------|-------|-------|-------|-------|-------|-------|-------|-------|-------|
-------|-------|-------|-------|-------|-------|-------|-------|-------|-------|
-------|-------|-------|-------|-------|-------|-------|-------|-------|-------|
-------|-------|-------|-------|-------|-------|-------|-------|-------|-------|
-------|-------|-------|-------|-------|-------|-------|-------|-------|-------|


-------|-------|-------|-------|-------|-------|-------|-------|-------|
-------|-------|-------|-------|-------|-------|-------|-------|-------|
-------|-------|-------|-------|-------|-------|-------|-------|-------|
-------|-------|-------|-------|-------|-------|-------|-------|-------|
-------|-------|-------|-------|-------|-------|-------|-------|-------|
-------|-------|-------|-------|-------|-------|-------|-------|-------|
-------|-------|-------|-------|-------|-------|-------|-------|-------|


|-------|-------|-------|-------|-------|-------|-------|--------||-------|
|-------|-------|-------|-------|-------|-------|-------|--------||-------|
|-------|-------|-------|-------|-------|-------|-------|--------||-------|
|-------|-------|-------|-------|-------|-------|-------|--------||-------|
|-------|-------|-------|-------|-------|-------|-------|--------||-------|
|-------|-------|-------|-------|-------|-------|-------|--------||-------|
|-------|-------|-------|-------|-------|-------|-------|--------||-------|


-------|-------|-------|-------|-------|-------|-------|-------|-------|-------|
-------|-------|-------|-------|-------|-------|-------|-------|-------|-------|
-------|-------|-------|-------|-------|-------|-------|-------|-------|-------|
-------|-------|-------|-------|-------|-------|-------|-------|-------|-------|
-------|-------|-------|-------|-------|-------|-------|-------|-------|-------|
-------|-------|-------|-------|-------|-------|-------|-------|-------|-------|
-------|-------|-------|-------|-------|-------|-------|-------|-------|-------|


-------|-------|-------|-------|-------|-------|-------|-------|-------|-------|
-------|-------|-------|-------|-------|-------|-------|-------|-------|-------|
-------|-------|-------|-------|-------|-------|-------|-------|-------|-------|
-------|-------|-------|-------|-------|-------|-------|-------|-------|-------|
-------|-------|-------|-------|-------|-------|-------|-------|-------|-------|
-------|-------|-------|-------|-------|-------|-------|-------|-------|-------|
-------|-------|-------|-------|-------|-------|-------|-------|-------|-------|


                                             Q       Q     E  E  E   E   
-------|-------|-------|-------|-------|--------------------------------|
-------|-------|-------|-------|-------|--------------------------------|
-------|-------|-------|-------|-------|----------------------9--9--12--|
-------|-------|-------|-------|-------|--7g10----7g12----12------------|
-------|-------|-------|-------|-------|--------------------------------|
-------|-------|-------|-------|-------|--------------------------------|
-------|-------|-------|-------|-------|--------------------------------|


                         PH                     
   E   E   E  E  E  E    Q                      
-------------------------------|-------|-------|
-------------------------------|-------|-------|
--12s--9------7--L--9----------|-------|-------|
----------10-----------<>7~----|-------|-------|
-------------------------------|-------|-------|
-------------------------------|-------|-------|
-------------------------------|-------|-------|


  PM PM PM PM PM PM PM PM  PM PM PM PM             
  S  S  S  S  S  S  S  S   S  S  S  S  S  S  S  S  
--7--7--------------8--8--------------10-10-------|
--------8--8--8--8--------10-10-10-10-------12-12-|
--------------------------------------------------|
--------------------------------------------------|
--------------------------------------------------|
--------------------------------------------------|
--------------------------------------------------|


   T          T          T          T          T          T          T          
   |---6---|  |---6---|  |---6---|  |---6---|  |---6---|  |---6---|  |---6---|  
   S   S   S  S   S   S  S   S   S  S   S   S  S   S   S  S   S   S  S   S   S  
--------------------------------------------------------------------------------
--20p-12h-15-20p-12h-15-20p-12h-15-20p-12h-15-20p-12h-15-20p-12h-15-20p-12h-15-2
--------------------------------------------------------------------------------
--------------------------------------------------------------------------------
--------------------------------------------------------------------------------
--------------------------------------------------------------------------------
--------------------------------------------------------------------------------


-------|-------|-------|-------|-------|-------|-------|-------|-------|-------|
-------|-------|-------|-------|-------|-------|-------|-------|-------|-------|
-------|-------|-------|-------|-------|-------|-------|-------|-------|-------|
-------|-------|-------|-------|-------|-------|-------|-------|-------|-------|
-------|-------|-------|-------|-------|-------|-------|-------|-------|-------|
-------|-------|-------|-------|-------|-------|-------|-------|-------|-------|
-------|-------|-------|-------|-------|-------|-------|-------|-------|-------|


-------|-------|-------|-------|-------|-------|-------|-------|-------|-------|
-------|-------|-------|-------|-------|-------|-------|-------|-------|-------|
-------|-------|-------|-------|-------|-------|-------|-------|-------|-------|
-------|-------|-------|-------|-------|-------|-------|-------|-------|-------|
-------|-------|-------|-------|-------|-------|-------|-------|-------|-------|
-------|-------|-------|-------|-------|-------|-------|-------|-------|-------|
-------|-------|-------|-------|-------|-------|-------|-------|-------|-------|


-------|-------|-------|-------|-------|-------|-------|-------|-------|-------|
-------|-------|-------|-------|-------|-------|-------|-------|-------|-------|
-------|-------|-------|-------|-------|-------|-------|-------|-------|-------|
-------|-------|-------|-------|-------|-------|-------|-------|-------|-------|
-------|-------|-------|-------|-------|-------|-------|-------|-------|-------|
-------|-------|-------|-------|-------|-------|-------|-------|-------|-------|
-------|-------|-------|-------|-------|-------|-------|-------|-------|-------|


-------|-------|-------|-------|-------|-------|-------|-------|-------|-------|
-------|-------|-------|-------|-------|-------|-------|-------|-------|-------|
-------|-------|-------|-------|-------|-------|-------|-------|-------|-------|
-------|-------|-------|-------|-------|-------|-------|-------|-------|-------|
-------|-------|-------|-------|-------|-------|-------|-------|-------|-------|
-------|-------|-------|-------|-------|-------|-------|-------|-------|-------|
-------|-------|-------|-------|-------|-------|-------|-------|-------|-------|


-------|-------|-------|-------|-------|-------|-------|-------|-------|-------|
-------|-------|-------|-------|-------|-------|-------|-------|-------|-------|
-------|-------|-------|-------|-------|-------|-------|-------|-------|-------|
-------|-------|-------|-------|-------|-------|-------|-------|-------|-------|
-------|-------|-------|-------|-------|-------|-------|-------|-------|-------|
-------|-------|-------|-------|-------|-------|-------|-------|-------|-------|
-------|-------|-------|-------|-------|-------|-------|-------|-------|-------|


-------|-------|-------|-------|-------|-------|-------|-------|-------|-------|
-------|-------|-------|-------|-------|-------|-------|-------|-------|-------|
-------|-------|-------|-------|-------|-------|-------|-------|-------|-------|
-------|-------|-------|-------|-------|-------|-------|-------|-------|-------|
-------|-------|-------|-------|-------|-------|-------|-------|-------|-------|
-------|-------|-------|-------|-------|-------|-------|-------|-------|-------|
-------|-------|-------|-------|-------|-------|-------|-------|-------|-------|


                        PH                       PH      PH      PH    
           E  Q    E    E    E  E  E     E  E    E  E    E  E    Q     
-------|------------------------------|-------------------------------|
-------|------------------------------|-------------------------------|
-------|------------------------------|--------<>5--5--<>7--7--<>5----|
-------|--/7--7----5--<>7br--L--7--5--|--7--7-------------------------|
-------|------------------------------|-------------------------------|
-------|------------------------------|-------------------------------|
-------|------------------------------|-------------------------------|


           PH     PH    PH     PH        PH    \2                          
    Q      E      E     E      E   E     E     H        Q    Q             
--------------------------------------------|---------------------|-------|
--------------------------------------------|---------------------|-------|
--/10----<>9s--<>12-------------------------|---------------------|-------|
---------------------<>12s--<>15--10--<>12--|--L--------L---------|-------|
--------------------------------------------|---------------------|-------|
--------------------------------------------|---------------------|-------|
--------------------------------------------|---------------------|-------|


-------|-------|-------|-------|-------|-------|-------|
-------|-------|-------|-------|-------|-------|-------|
-------|-------|-------|-------|-------|-------|-------|
-------|-------|-------|-------|-------|-------|-------|
-------|-------|-------|-------|-------|-------|-------|
-------|-------|-------|-------|-------|-------|-------|
-------|-------|-------|-------|-------|-------|-------|


   T          T          T          T                               
   |---6---|  |---6---|  |---6---|  |---6---|                       
   S   S   S  S   S   S  S   S   S  S   S   S  E    S   S  E    E   
--18p-15p-13-18p-15p-13-18p-15p-13-18p-15p-13--x/--15p-13--x/--15--|
-------------------------------------------------------------------|
-------------------------------------------------------------------|
-------------------------------------------------------------------|
-------------------------------------------------------------------|
-------------------------------------------------------------------|
-------------------------------------------------------------------|


   T     T      T     T     T      T                         
   |--6--|   |--6--|  |--6--|   |--6--|                      
   S   S S   S  S  S  S   S S   S  S  S  E    S  S  E    E   
--13p-10-8h-13-10p-8-13p-10-8h-13-10p-8--x/--10p-8--x/--10--|
------------------------------------------------------------|
------------------------------------------------------------|
------------------------------------------------------------|
------------------------------------------------------------|
------------------------------------------------------------|
------------------------------------------------------------|


                                       |---3---|   
   S  S  S  S  S  S  S  S  S  S  S  S  E   E   E   
--15-15-15-13-15-15-13----------------------------|
-----------------------15-13-15-13----------------|
-----------------------------------15-14--15--14--|
--------------------------------------------------|
--------------------------------------------------|
--------------------------------------------------|
--------------------------------------------------|


                             PH            
   |---3---|                               
   E   E   E   S  S  S  S    Q       Q     
------------------------------------------|
------13--15--13-15-13-15-<>13br~----L----|
--15--------------------------------------|
------------------------------------------|
------------------------------------------|
------------------------------------------|
------------------------------------------|


  PM PM PM PM PM PM PM PM  PM PM PM PM PM PM PM  
  S  S  S  S  S  S  S  S   E  S  S  S  S  S  S   
------------------------------------------------|
------------------------------------------------|
--------------7--7--------10--------7--7--------|
--8--8--8--8--------8--8------8--8--------8--8--|
------------------------------------------------|
------------------------------------------------|
------------------------------------------------|


   T      T      T      T                    SH     
   S   S  S   S  S   S  S   S  S  S  S  S    Q      
---------------------------------------------------|
---------------------------------------------------|
------------------------------15-14-12----<>12~----|
--17p-10-15p-10-17p-10-19p-10----------15----------|
---------------------------------------------------|
---------------------------------------------------|
---------------------------------------------------|


   S   S  S  S   S  S  S S   S  S S S  S  S S S  
------------------------------------------------|
------------------------------------------------|
--14p-10----10h-12p-9----9h-10p-7---7h-9p-5---5-|
---------12-----------10----------8---------7---|
------------------------------------------------|
------------------------------------------------|
------------------------------------------------|


    TH \1/ \1/ \1/   TH \1/ \1/ \1/                                             
    E  E   E   E     E  E   E   E       E   E   S  S  S  S  E   E   S  S  S  S  
------------------------------------|------------------------------------------|
------------------------------------|------------------------------------------|
-------------------<>7--L---L---L---|--15--15--14------------------------------|
--<>8--L---L---L--------------------|-------------15-14-12-15--15--14-12-------|
------------------------------------|------------------------------------13-12-|
------------------------------------|------------------------------------------|
------------------------------------|------------------------------------------|


   S  S  S  S  S  S  S  S  S  S  S  S  S  S  S  S  
--------------------------------------------------|
--------------------------------------------------|
--------------------------------------12-------12-|
-----------12-14----12-14-15-12-14-15----14-15----|
--15-13-15-------15-------------------------------|
--------------------------------------------------|
--------------------------------------------------|


   S  S  S  S  S  S  S   S  S   S  S  S  S  S  S  S  
----------------------------------------------------|
----------------------------------------------------|
--------------10-12-14p-10--------------------------|
--10----10-12--------------12p-10-------------------|
-----12---------------------------12----10----10-12-|
-------------------------------------13----13-------|
----------------------------------------------------|


   * w/ Whammy Pedal                                                
   /6                /6 /6 /6 /6 /6 /6  /6 /6  /6 /6 /6 /6  /6 -\6  
   S                 S  S  S  S  S  S   S  S   S  S  S  S   S  E    
-------------------------------------------------------------------|
-------------------------------------------------------------------|
-----------------------------10-12-14p-10--------------------------|
--10-------------------10-12--------------12p-10-------------------|
--------------------12---------------------------12----10h-12------|
----------------------------------------------------13--------13~--|
-------------------------------------------------------------------|


    Q.      Q.      Q           E   E  E      E  Q     Q     
-------------------------|----------------------------------|
--/18------18------17----|--17g18--17-----17g15--L----------|
-------------------------|----------------------------17----|
-------------------------|----------------------------------|
-------------------------|----------------------------------|
-------------------------|----------------------------------|
-------------------------|----------------------------------|


   S   S   S  S   S   S  S   S   S   S   S  S   S   S  S   S  
-------------------------------------------------------------|
--18p-17p-15------------------------------------------15h-17-|
-------------17p-15p-14--------------------14h-15h-17--------|
------------------------17p-15p-14h-15h-17-------------------|
-------------------------------------------------------------|
-------------------------------------------------------------|
-------------------------------------------------------------|


                                                   SH     
   T   T   S   S   S   S   S  S   S   S   S  E     Q      
--17h-18p-17h-18p-17h-18p-17-13h-17p-13h-17-13--<>13~----|
---------------------------------------------------------|
---------------------------------------------------------|
---------------------------------------------------------|
---------------------------------------------------------|
---------------------------------------------------------|
---------------------------------------------------------|


   T              T              T              T              T              T 
   T   T   T   T  T   T   T   T  T   T   T   T  T   T   T   T  T   T   T   T  T 
--------------------------------------------------------------17p-13p-10h-13-17p
--------------------------------18p-15p-11h-15-18p-15p-11h-15-------------------
--19p-15p-12h-15-19p-15p-12h-15-------------------------------------------------
--------------------------------------------------------------------------------
--------------------------------------------------------------------------------
--------------------------------------------------------------------------------
--------------------------------------------------------------------------------


   T              T              T              T              T                
                                                               |---3---|        
   T   T   T   T  T   T   T   T  T   T   T   T  T   T   T   T  S   S   S  E   S 
--------------------------------------------------------------------------------
--------------------------------------------------------------------------------
--17p-15p-12h-15-17p-15p-12h-15-17p-15p-12h-15-17p-15p-12h-15-17p-15p-12-10--10s
--------------------------------------------------------------------------------
--------------------------------------------------------------------------------
--------------------------------------------------------------------------------
--------------------------------------------------------------------------------


   PM PM PM PM PM PM PM PM PM PM PM PM PM PM PM PM 
   S  S  S  S  S  S  S  S  S  S  S  S  S  S  S  S  
--------------------------------------------------|
--------------------------------------------------|
--10-10-------10-10-12-12-14-14-12-12-10-10-------|
--------12-12-------------------------------12-12-|
--------------------------------------------------|
--------------------------------------------------|
--------------------------------------------------|


  S  S S  S S  S S  S E   E  Q                                              
--x/---x/---x/---x/---x/-----x\----|-------|-------|-------|-------|-------|
--x/---x/---x/---x/---x/-----x\----|-------|-------|-------|-------|-------|
--x/---x/---x/---x/---x/-----x\----|-------|-------|-------|-------|-------|
-----------------------------------|-------|-------|-------|-------|-------|
-----------------------------------|-------|-------|-------|-------|-------|
-----------------------------------|-------|-------|-------|-------|-------|
-----------------------------------|-------|-------|-------|-------|-------|


-------|-------|-------|-------|-------|-------|-------|-------|-------|-------|
-------|-------|-------|-------|-------|-------|-------|-------|-------|-------|
-------|-------|-------|-------|-------|-------|-------|-------|-------|-------|
-------|-------|-------|-------|-------|-------|-------|-------|-------|-------|
-------|-------|-------|-------|-------|-------|-------|-------|-------|-------|
-------|-------|-------|-------|-------|-------|-------|-------|-------|-------|
-------|-------|-------|-------|-------|-------|-------|-------|-------|-------|


                                                                PH       
            Q.         E  Q     Q        E   E  E      E  E     Q.       
-------|-----------------------------|----------------------------------|
-------|-----------------------------|----------------------------------|
-------|--/14------14g12--L----------|--12------------------------------|
-------|-----------------------15----|------15-----10g12-----<>15~------|
-------|-----------------------------|----------------------------------|
-------|-----------------------------|----------------------------------|
-------|-----------------------------|----------------------------------|


   T      T      T      T          T      T                          
                        |---3---|                         |---3---|  
   S   S  S   S  S   S  S   S   S  S   S  S   S   S   S   S   S   S  
--------------------------------------------------------------------|
--18p-15-18p-15-18p-15-18p-15p-13-----------------------------------|
----------------------------------19p-17-19p-17p-14h-17p-14h-17p-14-|
--------------------------------------------------------------------|
--------------------------------------------------------------------|
--------------------------------------------------------------------|
--------------------------------------------------------------------|


   E      E  E      E  E   Q.       
-----------------------------------|
-----------------------------------|
--17--17g19-----17g14--------------|
--------------------------17~------|
-----------------------------------|
-----------------------------------|
-----------------------------------|


                           T          T          T          T          T        
                           |---3---|  |---3---|  |---3---|  |---3---|  |---3---|
   S  S  S  S  S  S  S  S  T   T   T  T   T   T  T   T   T  T   T   T  T   T   T
--17-13-------------13-15-20p-17p-13-20p-17p-13-22p-17p-13-22p-17p-13-20p-17p-13
--------15----15-17-------------------------------------------------------------
-----------14-------------------------------------------------------------------
--------------------------------------------------------------------------------
--------------------------------------------------------------------------------
--------------------------------------------------------------------------------
--------------------------------------------------------------------------------


                           T          T          T          T          T        
                           |---3---|  |---3---|  |---3---|  |---3---|  |---3---|
   S  S  S  S  S  S  S  S  T   T   T  T   T   T  T   T   T  T   T   T  T   T   T
--------------------------------------------------------------------------------
--------------------------------------------------------------------------------
--14-10-------------10-12-17p-14p-10-17p-14p-10-19p-14p-10-19p-14p-10-17p-14p-10
--------12----12-14-------------------------------------------------------------
-----------12-------------------------------------------------------------------
--------------------------------------------------------------------------------
--------------------------------------------------------------------------------


   E    E  E   E   E   E  E    E      E   E   E  E   E   E   E   E   
----------------------------------|---------------------------------|
----------------------------------|-------------------------10--11--|
--14s--10--9--10p--9------9h--10--|--10p--9s--7--7s--9--10----------|
----------------------12----------|---------------------------------|
----------------------------------|---------------------------------|
----------------------------------|---------------------------------|
----------------------------------|---------------------------------|


   T         T         T         T         T         T         T         T      
   |---3--|  |---3--|  |---3--|  |---3--|  |---3--|  |---3--|  |---3--|  |---3--
   T   T  T  T   T  T  T   T  T  T   T  T  T   T  T  T   T  T  T   T  T  T   T  
--------------------------------------------------------------------------------
--13p-10p-6-13p-10p-6-15p-10p-6-15p-10p-6-13p-10p-6-13p-10p-6-15p-10p-6-15p-10p-
--------------------------------------------------------------------------------
--------------------------------------------------------------------------------
--------------------------------------------------------------------------------
--------------------------------------------------------------------------------
--------------------------------------------------------------------------------


   T         T         T         T         T         T         T         T      
   |---3--|  |---3--|  |---3--|  |---3--|  |---3--|  |---3--|  |---3--|  |---3--
   T   T  T  T   T  T  T   T  T  T   T  T  T   T  T  T   T  T  T   T  T  T   T  
--------------------------------------------------------------------------------
--------------------------------------------------------------------------------
--14p-10p-5-14p-10p-5-15p-10p-5-15p-10p-5-14p-10p-5-14p-10p-5-15p-10p-5-15p-10p-
--------------------------------------------------------------------------------
--------------------------------------------------------------------------------
--------------------------------------------------------------------------------
--------------------------------------------------------------------------------


   T         T         T         T         T         T         T         T      
   |---3--|  |---3--|  |---3--|  |---3--|  |---3--|  |---3--|  |---3--|  |---3--
   T   T  T  T   T  T  T   T  T  T   T  T  T   T  T  T   T  T  T   T  T  T   T  
--------------------------------------------------------------------------------
--17p-11p-6-17p-11p-6-18p-11p-6-18p-11p-6-17p-11p-6-17p-11p-6-15p-11p-6-15p-11p-
--------------------------------------------------------------------------------
--------------------------------------------------------------------------------
--------------------------------------------------------------------------------
--------------------------------------------------------------------------------
--------------------------------------------------------------------------------


   T          T         T         T         T         T         T         T     
   |---3---|  |---3--|  |---3--|  |---3--|  |---3--|  |---3--|  |---3--|  |---3-
   T   T   T  T   T  T  T   T  T  T   T  T  T   T  T  T   T  T  T   T  T  T   T 
--------------------------------------------------------------------------------
--17p-13h-18-17p-13p-8-18p-13p-8-18p-13p-8-20p-13p-8-20p-13p-8-17p-13p-8-17p-13p
--------------------------------------------------------------------------------
--------------------------------------------------------------------------------
--------------------------------------------------------------------------------
--------------------------------------------------------------------------------
--------------------------------------------------------------------------------


   S  S  S  S  S  S  S  S  S  S  S  S  S  S  S  S  
--------------------------------------------------|
--18-17----------------------------------------17-|
--------19-17----------------------------17-19----|
--------------20-19-17----------17-19-20----------|
-----------------------20-19-20-------------------|
--------------------------------------------------|
--------------------------------------------------|


   E      Q     E   S  S  S  S  Q      
--20--20g22----20--20-18-17-----------|
----------------------------20-18~----|
--------------------------------------|
--------------------------------------|
--------------------------------------|
--------------------------------------|
--------------------------------------|


  S   S  S   S  S   S  S   S  S   S   S   S   S   S   S   S  
--8h-12p-8h-12p-8h-12p-8h-12-12h-15p-12h-15p-12h-15p-12h-15-|
------------------------------------------------------------|
------------------------------------------------------------|
------------------------------------------------------------|
------------------------------------------------------------|
------------------------------------------------------------|
------------------------------------------------------------|


                                            \2                                 
   |-------5-------|   |-------5-------|                                       
   S   S   S   S   S   S   S   S   S   S    Q.     E                           
--18p-15h-18p-15h-18p-15h-18p-15h-18p-15-<>15------L--|-------|-------|-------|
------------------------------------------------------|-------|-------|-------|
------------------------------------------------------|-------|-------|-------|
------------------------------------------------------|-------|-------|-------|
------------------------------------------------------|-------|-------|-------|
------------------------------------------------------|-------|-------|-------|
------------------------------------------------------|-------|-------|-------|


-------|-------|-------|-------|-------|-------|-------|-------|-------|-------|
-------|-------|-------|-------|-------|-------|-------|-------|-------|-------|
-------|-------|-------|-------|-------|-------|-------|-------|-------|-------|
-------|-------|-------|-------|-------|-------|-------|-------|-------|-------|
-------|-------|-------|-------|-------|-------|-------|-------|-------|-------|
-------|-------|-------|-------|-------|-------|-------|-------|-------|-------|
-------|-------|-------|-------|-------|-------|-------|-------|-------|-------|


-------|-------|-------|-------|-------|-------|-------|-------|-------|-------|
-------|-------|-------|-------|-------|-------|-------|-------|-------|-------|
-------|-------|-------|-------|-------|-------|-------|-------|-------|-------|
-------|-------|-------|-------|-------|-------|-------|-------|-------|-------|
-------|-------|-------|-------|-------|-------|-------|-------|-------|-------|
-------|-------|-------|-------|-------|-------|-------|-------|-------|-------|
-------|-------|-------|-------|-------|-------|-------|-------|-------|-------|


-------|-------|-------|-------|-------|-------|-------|-------|-------|-------|
-------|-------|-------|-------|-------|-------|-------|-------|-------|-------|
-------|-------|-------|-------|-------|-------|-------|-------|-------|-------|
-------|-------|-------|-------|-------|-------|-------|-------|-------|-------|
-------|-------|-------|-------|-------|-------|-------|-------|-------|-------|
-------|-------|-------|-------|-------|-------|-------|-------|-------|-------|
-------|-------|-------|-------|-------|-------|-------|-------|-------|-------|


-------|-------|-------|-------|-------|-------|-------|-------|-------|-------|
-------|-------|-------|-------|-------|-------|-------|-------|-------|-------|
-------|-------|-------|-------|-------|-------|-------|-------|-------|-------|
-------|-------|-------|-------|-------|-------|-------|-------|-------|-------|
-------|-------|-------|-------|-------|-------|-------|-------|-------|-------|
-------|-------|-------|-------|-------|-------|-------|-------|-------|-------|
-------|-------|-------|-------|-------|-------|-------|-------|-------|-------|


-------|-------|-------|-------|-------|-------|-------|-------|-------|-------|
-------|-------|-------|-------|-------|-------|-------|-------|-------|-------|
-------|-------|-------|-------|-------|-------|-------|-------|-------|-------|
-------|-------|-------|-------|-------|-------|-------|-------|-------|-------|
-------|-------|-------|-------|-------|-------|-------|-------|-------|-------|
-------|-------|-------|-------|-------|-------|-------|-------|-------|-------|
-------|-------|-------|-------|-------|-------|-------|-------|-------|-------|


-------||
-------||
-------||
-------||
-------||
-------||
-------||

***************************************************************************************
#######################################################################################
***************************************************************************************

Sam Totman | Rhythm



           PM PM PM PM PM PM    PM PM PM PM PM PM PM     
     E  E  E  E  E  E  E  E     E  E  E  E  E  E  E  E   
E||--------------------------|--------------------------|
B||--------------------------|--------------------------|
G||--7--7--------------------|-----------------------7--|
D||--7--7--------------------|-----------------------7--|
A||--5--5--5--5--5--5--5--5--|--5--5--5--5--5--5--5--5--|
E||--------------------------|--------------------------|
B||--------------------------|--------------------------|


        PM PM PM PM PM PM    PM PM PM PM PM PM PM     
  E  E  E  E  E  E  E  E     E  E  E  E  E  E  E  E   
--------------------------|--------------------------|
--------------------------|--------------------------|
--L--7--------------------|-----------------------7--|
--L--7--------------------|-----------------------7--|
--L--5--5--5--5--5--5--5--|--5--5--5--5--5--5--5--5--|
--------------------------|--------------------------|
--------------------------|--------------------------|


        PM PM PM PM PM PM    PM PM PM PM PM PM PM     
  E  E  E  E  E  E  E  E     E  E  E  E  E  E  E  E   
--------------------------|--------------------------|
--------------------------|--------------------------|
--L--7--------------------|--------------------------|
--L--7--------------------|-----------------------8--|
--L--5--5--5--5--5--5--5--|--5--5--5--5--5--5--5--8--|
--------------------------|-----------------------6--|
--------------------------|--------------------------|


     PM PM PM PM PM PM                                                 
  E  E  E  E  E  E  E  E     E  E  E  E  H           W                 
--------------------------|-----------------------|-------------------|
--------------------------|-----------------------|-------------------|
--------------------------|-----------------------|-------------------|
--L--------------------7--|-----7-----7-----------|-------------------|
--L--------------------7--|-----7-----7-----------|-------------------|
--L--6--6--6--6--6--6--5--|-----5-----5-----------|-------------------|
--------------------------|-----------------------|-------------------|


     PM PM PM PM PM PM PM PM PM PM PM PM PM PM  
  E  S  S  S  S  S  S  S  S  S  S  S  S  S  S   
-----------------------------------------------|
-----------------------------------------------|
--7--------------------------------------------|
--7--------------------------------------------|
--5--5--5--5--5--5--5--5--5--5--5--5--5--5--5--|
-----------------------------------------------|
-----------------------------------------------|


  PM PM PM PM PM PM PM PM PM PM PM PM PM PM PM PM                      
  S  S  S  S  S  S  S  S  S  S  S  S  S  S  S  S     W                 
--------------------------------------------------|-------------------|
--------------------------------------------------|-------------------|
--------------------------------------------------|-------------------|
--------------------------------------------------|--8----------------|
--5--5--5--5--5--5--5--5--5--5--5--5--5--5--5--5--|--8----------------|
--------------------------------------------------|--6----------------|
--------------------------------------------------|-------------------|


                         PM PM PM PM PM PM PM PM PM PM PM PM PM PM  
  W                   E  S  S  S  S  S  S  S  S  S  S  S  S  S  S   
-------------------|-----------------------------------------------|
-------------------|-----------------------------------------------|
--7----------------|--7--------------------------------------------|
--7----------------|--7--------------------------------------------|
--5----------------|--5--5--5--5--5--5--5--5--5--5--5--5--5--5--5--|
-------------------|-----------------------------------------------|
-------------------|-----------------------------------------------|


  PM PM PM PM PM PM PM PM PM PM PM PM PM PM PM PM                      
  S  S  S  S  S  S  S  S  S  S  S  S  S  S  S  S     W                 
--------------------------------------------------|-------------------|
--------------------------------------------------|-------------------|
--------------------------------------------------|-------------------|
--------------------------------------------------|--8----------------|
--5--5--5--5--5--5--5--5--5--5--5--5--5--5--5--5--|--8----------------|
--------------------------------------------------|--6----------------|
--------------------------------------------------|-------------------|


                                    PM PM                      
  H        H           H.           E  E     W                 
--------------------|---------------------|-------------------|
--------------------|---------------------|-------------------|
--7--------5--------|--7------------------|--2----------------|
--7--------5--------|--7------------7--7--|--2----------------|
--5--------3--------|--5------------5--5--|--0----------------|
--------------------|---------------------|-------------------|
--------------------|---------------------|-------------------|


  W                   H        H         
-------------------|--------------------|
-------------------|--------------------|
--3----------------|-----------5--------|
--3----------------|--3--------5--------|
--1----------------|--3--------3--------|
-------------------|--1-----------------|
-------------------|--------------------|


     PM PM PM PM PM PM PM PM PM PM PM PM PM PM  
  E  S  S  S  S  S  S  S  S  S  S  S  S  S  S   
-----------------------------------------------|
-----------------------------------------------|
--7--------------------------------------------|
--7--------------------------------------------|
--5--5--5--5--5--5--5--5--5--5--5--5--5--5--5--|
-----------------------------------------------|
-----------------------------------------------|


     PM PM PM PM PM PM PM PM PM PM PM PM PM PM  
  E  S  S  S  S  S  S  S  S  S  S  S  S  S  S   
-----------------------------------------------|
-----------------------------------------------|
--2--------------------------------------------|
--2--------------------------------------------|
--0--0--0--0--0--0--0--0--0--0--0--0--0--0--0--|
-----------------------------------------------|
-----------------------------------------------|


     PM PM PM PM PM PM PM PM PM PM PM PM PM PM                       
  E  S  S  S  S  S  S  S  S  S  S  S  S  S  S     H        H         
-----------------------------------------------|--------------------|
-----------------------------------------------|--------------------|
--3--------------------------------------------|-----------5--------|
--3--------------------------------------------|--3--------5--------|
--1--1--1--1--1--1--1--1--1--1--1--1--1--1--1--|--3--------3--------|
-----------------------------------------------|--1-----------------|
-----------------------------------------------|--------------------|


                                             PM PM   PM PM         
  Q    H.              Q    Q    H           E  Q    E  E  Q.      
--------------------|---------------------|-----------------------|
--------------------|---------------------|-----------------------|
--------------------|-------5-------------|-----------------------|
--3-----------------|--3----5-------------|--3--3----3--3---------|
--3-----------------|--3----3-------------|--1--1----1--1---------|
--1-----------------|--1------------------|-----------------------|
--------------------|---------------------|-----------------------|


  PM PM   PM PM                                                  
  E  Q    E  E  Q.        Q    H.              W                 
-----------------------|--------------------|-------------------|
-----------------------|--------------------|-------------------|
-----------------------|--2-----------------|-------------------|
--3--3----3--3---------|--2-----------------|-------------------|
--1--1----1--1---------|--0-----------------|-------------------|
-----------------------|--------------------|-------------------|
-----------------------|--------------------|-------------------|


-------------------|-------------------|-------------------|-------------------|
-------------------|-------------------|-------------------|-------------------|
-------------------|-------------------|-------------------|-------------------|
-------------------|-------------------|-------------------|-------------------|
-------------------|-------------------|-------------------|-------------------|
-------------------|-------------------|-------------------|-------------------|
-------------------|-------------------|-------------------|-------------------|


-------------------|-------------------|-------------------|-------------------|
-------------------|-------------------|-------------------|-------------------|
-------------------|-------------------|-------------------|-------------------|
-------------------|-------------------|-------------------|-------------------|
-------------------|-------------------|-------------------|-------------------|
-------------------|-------------------|-------------------|-------------------|
-------------------|-------------------|-------------------|-------------------|


-------------------|-------------------|-------------------|-------------------|
-------------------|-------------------|-------------------|-------------------|
-------------------|-------------------|-------------------|-------------------|
-------------------|-------------------|-------------------|-------------------|
-------------------|-------------------|-------------------|-------------------|
-------------------|-------------------|-------------------|-------------------|
-------------------|-------------------|-------------------|-------------------|


-------------------|-------------------|-------------------|-------------------|
-------------------|-------------------|-------------------|-------------------|
-------------------|-------------------|-------------------|-------------------|
-------------------|-------------------|-------------------|-------------------|
-------------------|-------------------|-------------------|-------------------|
-------------------|-------------------|-------------------|-------------------|
-------------------|-------------------|-------------------|-------------------|


-------------------|-------------------|-------------------|-------------------|
-------------------|-------------------|-------------------|-------------------|
-------------------|-------------------|-------------------|-------------------|
-------------------|-------------------|-------------------|-------------------|
-------------------|-------------------|-------------------|-------------------|
-------------------|-------------------|-------------------|-------------------|
-------------------|-------------------|-------------------|-------------------|


-------------------|-------------------|-------------------|-------------------|
-------------------|-------------------|-------------------|-------------------|
-------------------|-------------------|-------------------|-------------------|
-------------------|-------------------|-------------------|-------------------|
-------------------|-------------------|-------------------|-------------------|
-------------------|-------------------|-------------------|-------------------|
-------------------|-------------------|-------------------|-------------------|


-------------------|-------------------|-------------------|-------------------|
-------------------|-------------------|-------------------|-------------------|
-------------------|-------------------|-------------------|-------------------|
-------------------|-------------------|-------------------|-------------------|
-------------------|-------------------|-------------------|-------------------|
-------------------|-------------------|-------------------|-------------------|
-------------------|-------------------|-------------------|-------------------|


-------------------|-------------------|-------------------|-------------------|
-------------------|-------------------|-------------------|-------------------|
-------------------|-------------------|-------------------|-------------------|
-------------------|-------------------|-------------------|-------------------|
-------------------|-------------------|-------------------|-------------------|
-------------------|-------------------|-------------------|-------------------|
-------------------|-------------------|-------------------|-------------------|


-------------------|-------------------|-------------------|-------------------|
-------------------|-------------------|-------------------|-------------------|
-------------------|-------------------|-------------------|-------------------|
-------------------|-------------------|-------------------|-------------------|
-------------------|-------------------|-------------------|-------------------|
-------------------|-------------------|-------------------|-------------------|
-------------------|-------------------|-------------------|-------------------|


-------------------|-------------------|-------------------|-------------------|
-------------------|-------------------|-------------------|-------------------|
-------------------|-------------------|-------------------|-------------------|
-------------------|-------------------|-------------------|-------------------|
-------------------|-------------------|-------------------|-------------------|
-------------------|-------------------|-------------------|-------------------|
-------------------|-------------------|-------------------|-------------------|


-------------------|-------------------|-------------------|-------------------|
-------------------|-------------------|-------------------|-------------------|
-------------------|-------------------|-------------------|-------------------|
-------------------|-------------------|-------------------|-------------------|
-------------------|-------------------|-------------------|-------------------|
-------------------|-------------------|-------------------|-------------------|
-------------------|-------------------|-------------------|-------------------|


-------------------|-------------------|-------------------|-------------------|
-------------------|-------------------|-------------------|-------------------|
-------------------|-------------------|-------------------|-------------------|
-------------------|-------------------|-------------------|-------------------|
-------------------|-------------------|-------------------|-------------------|
-------------------|-------------------|-------------------|-------------------|
-------------------|-------------------|-------------------|-------------------|


-------------------|-------------------|-------------------|-------------------|
-------------------|-------------------|-------------------|-------------------|
-------------------|-------------------|-------------------|-------------------|
-------------------|-------------------|-------------------|-------------------|
-------------------|-------------------|-------------------|-------------------|
-------------------|-------------------|-------------------|-------------------|
-------------------|-------------------|-------------------|-------------------|


-------------------|-------------------|-------------------|-------------------|
-------------------|-------------------|-------------------|-------------------|
-------------------|-------------------|-------------------|-------------------|
-------------------|-------------------|-------------------|-------------------|
-------------------|-------------------|-------------------|-------------------|
-------------------|-------------------|-------------------|-------------------|
-------------------|-------------------|-------------------|-------------------|


  H        H           H        H           H        H         
--------------------|--------------------|--------------------|
--------------------|--------------------|--------------------|
--7-----------------|--5--------7--------|--7-----------------|
--7--------8--------|--5--------7--------|--7--------8--------|
--5--------8--------|--3--------5--------|--5--------8--------|
-----------6--------|--------------------|-----------6--------|
--------------------|--------------------|--------------------|


   H         H           H        H           H        H         
----------------------|--------------------|--------------------|
----------------------|--------------------|--------------------|
--10------------------|--7-----------------|--5--------7--------|
--10--------10--------|--7--------8--------|--5--------7--------|
---8--------10--------|--5--------8--------|--3--------5--------|
-------------8--------|-----------6--------|--------------------|
----------------------|--------------------|--------------------|


       PM                     PM                                    
  Q    E  E  H           Q    E  E  H           E  Q.     H         
----------------------|----------------------|---------------------|
----------------------|----------------------|---------------------|
----------------------|--5-------5--L--------|---------------------|
--3-------3--L--------|--5----5--5--L--------|--3------------------|
--3----3--3--L--------|--3----3--3--L--------|--3------------------|
--1----1--1--L--------|----------------------|--1------------------|
----------------------|----------------------|---------------------|


     PM PM PM PM PM                                                  
  E  E  E  E  E  E   Q       E  Q.     H                             
--------------------------|---------------------|-------------------|
--------------------------|---------------------|-------------------|
--------------------------|---------------------|-------------------|
--------------------10----|--8------------------|-------------------|
-----8--7--5--7--8--10----|--8------------------|-------------------|
-----6--5--3--5--6---8----|--6------------------|-------------------|
--------------------------|---------------------|-------------------|


-------------------|-------------------|-------------------|-------------------|
-------------------|-------------------|-------------------|-------------------|
-------------------|-------------------|-------------------|-------------------|
-------------------|-------------------|-------------------|-------------------|
-------------------|-------------------|-------------------|-------------------|
-------------------|-------------------|-------------------|-------------------|
-------------------|-------------------|-------------------|-------------------|


-------------------|-------------------|-------------------|-------------------|
-------------------|-------------------|-------------------|-------------------|
-------------------|-------------------|-------------------|-------------------|
-------------------|-------------------|-------------------|-------------------|
-------------------|-------------------|-------------------|-------------------|
-------------------|-------------------|-------------------|-------------------|
-------------------|-------------------|-------------------|-------------------|


-------------------|-------------------|-------------------|-------------------|
-------------------|-------------------|-------------------|-------------------|
-------------------|-------------------|-------------------|-------------------|
-------------------|-------------------|-------------------|-------------------|
-------------------|-------------------|-------------------|-------------------|
-------------------|-------------------|-------------------|-------------------|
-------------------|-------------------|-------------------|-------------------|


-------------------|-------------------|-------------------|-------------------|
-------------------|-------------------|-------------------|-------------------|
-------------------|-------------------|-------------------|-------------------|
-------------------|-------------------|-------------------|-------------------|
-------------------|-------------------|-------------------|-------------------|
-------------------|-------------------|-------------------|-------------------|
-------------------|-------------------|-------------------|-------------------|


-------------------|-------------------|-------------------|-------------------|
-------------------|-------------------|-------------------|-------------------|
-------------------|-------------------|-------------------|-------------------|
-------------------|-------------------|-------------------|-------------------|
-------------------|-------------------|-------------------|-------------------|
-------------------|-------------------|-------------------|-------------------|
-------------------|-------------------|-------------------|-------------------|


-------------------|-------------------|-------------------|-------------------|
-------------------|-------------------|-------------------|-------------------|
-------------------|-------------------|-------------------|-------------------|
-------------------|-------------------|-------------------|-------------------|
-------------------|-------------------|-------------------|-------------------|
-------------------|-------------------|-------------------|-------------------|
-------------------|-------------------|-------------------|-------------------|


-------------------|-------------------|-------------------|-------------------|
-------------------|-------------------|-------------------|-------------------|
-------------------|-------------------|-------------------|-------------------|
-------------------|-------------------|-------------------|-------------------|
-------------------|-------------------|-------------------|-------------------|
-------------------|-------------------|-------------------|-------------------|
-------------------|-------------------|-------------------|-------------------|


-------------------|-------------------|-------------------|-------------------|
-------------------|-------------------|-------------------|-------------------|
-------------------|-------------------|-------------------|-------------------|
-------------------|-------------------|-------------------|-------------------|
-------------------|-------------------|-------------------|-------------------|
-------------------|-------------------|-------------------|-------------------|
-------------------|-------------------|-------------------|-------------------|


-------------------|-------------------|-------------------|-------------------|
-------------------|-------------------|-------------------|-------------------|
-------------------|-------------------|-------------------|-------------------|
-------------------|-------------------|-------------------|-------------------|
-------------------|-------------------|-------------------|-------------------|
-------------------|-------------------|-------------------|-------------------|
-------------------|-------------------|-------------------|-------------------|


-------------------|-------------------|-------------------|-------------------|
-------------------|-------------------|-------------------|-------------------|
-------------------|-------------------|-------------------|-------------------|
-------------------|-------------------|-------------------|-------------------|
-------------------|-------------------|-------------------|-------------------|
-------------------|-------------------|-------------------|-------------------|
-------------------|-------------------|-------------------|-------------------|


-------------------|-------------------|-------------------|-------------------|
-------------------|-------------------|-------------------|-------------------|
-------------------|-------------------|-------------------|-------------------|
-------------------|-------------------|-------------------|-------------------|
-------------------|-------------------|-------------------|-------------------|
-------------------|-------------------|-------------------|-------------------|
-------------------|-------------------|-------------------|-------------------|


-------------------|-------------------|-------------------|-------------------|
-------------------|-------------------|-------------------|-------------------|
-------------------|-------------------|-------------------|-------------------|
-------------------|-------------------|-------------------|-------------------|
-------------------|-------------------|-------------------|-------------------|
-------------------|-------------------|-------------------|-------------------|
-------------------|-------------------|-------------------|-------------------|


-------------------|-------------------|-------------------|-------------------|
-------------------|-------------------|-------------------|-------------------|
-------------------|-------------------|-------------------|-------------------|
-------------------|-------------------|-------------------|-------------------|
-------------------|-------------------|-------------------|-------------------|
-------------------|-------------------|-------------------|-------------------|
-------------------|-------------------|-------------------|-------------------|


-------------------|-------------------|-------------------|
-------------------|-------------------|-------------------|
-------------------|-------------------|-------------------|
-------------------|-------------------|-------------------|
-------------------|-------------------|-------------------|
-------------------|-------------------|-------------------|
-------------------|-------------------|-------------------|


  H        H           H        H           H        H         
--------------------|--------------------|--------------------|
--------------------|--------------------|--------------------|
--7-----------------|--5--------7--------|--7-----------------|
--7--------8--------|--5--------7--------|--7--------8--------|
--5--------8--------|--3--------5--------|--5--------8--------|
-----------6--------|--------------------|-----------6--------|
--------------------|--------------------|--------------------|


   H         H           H        H           H        H         
----------------------|--------------------|--------------------|
----------------------|--------------------|--------------------|
--10------------------|--7-----------------|--5--------7--------|
--10--------10--------|--7--------8--------|--5--------7--------|
---8--------10--------|--5--------8--------|--3--------5--------|
-------------8--------|-----------6--------|--------------------|
----------------------|--------------------|--------------------|


       PM                     PM                                    
  Q    E  E  H           Q    E  E  H           E  Q.     H         
----------------------|----------------------|---------------------|
----------------------|----------------------|---------------------|
----------------------|--5-------5--L--------|---------------------|
--3-------3--L--------|--5----5--5--L--------|--3------------------|
--3----3--3--L--------|--3----3--3--L--------|--3------------------|
--1----1--1--L--------|----------------------|--1------------------|
----------------------|----------------------|---------------------|


     PM PM PM PM PM                                                     
  E  E  E  E  E  E   Q       E  Q.     H           Q    Q    Q    Q     
--------------------------|---------------------|----------------------|
--------------------------|---------------------|----------------------|
--------------------------|--3------------------|--3----2----3----5----|
--------------------10----|--3------------------|--3----2----3----5----|
-----8--7--5--7--8--10----|--1------------------|--1----0----1----3----|
-----6--5--3--5--6---8----|---------------------|----------------------|
--------------------------|---------------------|----------------------|


       PM PM PM PM PM PM    PM PM PM PM PM                              
  Q    E  E  E  E  E  E     E  E  E  E  E  Q.                           
-------------------------|------------------------||---------|---------|
-------------------------|------------------------||---------|---------|
--2----------------------|------------------------||---------|---------|
--2----2--2--2--2--2--2--|--2--2--2--2--2---------||---------|---------|
--0----0--0--0--0--0--0--|--0--0--0--0--0---------||---------|---------|
-------------------------|------------------------||---------|---------|
-------------------------|------------------------||---------|---------|


---------|---------|---------|---------|---------|----------||---------|
---------|---------|---------|---------|---------|----------||---------|
---------|---------|---------|---------|---------|----------||---------|
---------|---------|---------|---------|---------|----------||---------|
---------|---------|---------|---------|---------|----------||---------|
---------|---------|---------|---------|---------|----------||---------|
---------|---------|---------|---------|---------|----------||---------|


                                                        PM     
                                          H        Q    E  E   
---------|---------|---------|---------|----------------------|
---------|---------|---------|---------|----------------------|
---------|---------|---------|---------|----------------------|
---------|---------|---------|---------|-------------------8--|
---------|---------|---------|---------|----------------8--8--|
---------|---------|---------|---------|----------------6--6--|
---------|---------|---------|---------|----------------------|


                                     PM             PM PM PM    PM     
  H        Q.     E     H.           E  E     E  E  E  E  E  E  E  E   
---------------------|---------------------|--------------------------|
---------------------|---------------------|--------------------------|
------------------5--|--L------------------|--------------------------|
--L--------L------5--|--L------------0--3--|--L--3--3--3--3--2--2--0--|
--L--------L------3--|--L------------0--5--|--L--5--5--5--5--3--3--1--|
--L--------L---------|---------------------|--------------------------|
---------------------|---------------------|--------------------------|


        PM PM PM PM PM PM         PM PM       PM             PM PM PM PM PM PM  
  E  E  E  E  E  E  E  E     Q    E  E  E  E  E  E     E  E  E  E  E  E  E  E   
--------------------------|-------------------------|--------------------------|
--------------------------|-------------------------|--------------------------|
--------------------------|-------------------------|--------------------------|
--L--0--0--0--0--0--0--0--|--2----2--2--3--2--2--3--|--L--3--3--3--3--3--3--3--|
--L--1--1--1--1--1--1--1--|--3----3--3--3--3--3--5--|--L--5--5--5--5--5--5--5--|
--------------------------|-------------------------|--------------------------|
--------------------------|-------------------------|--------------------------|


       PM PM PM    PM             PM PM PM PM PM PM         PM PM       PM     
  Q    E  E  E  E  E  E     E  E  E  E  E  E  E  E     Q    E  E  E  E  E  E   
-------------------------|--------------------------|-------------------------|
-------------------------|--------------------------|-------------------------|
-------------------------|--------------------------|----------------------2--|
--3----3--3--3--2--2--0--|--L--0--0--0--0--0--0--0--|--2----2--2--2--3--2--2--|
--5----5--5--5--3--3--1--|--L--1--1--1--1--1--1--1--|--3----3--3--3--3--3--0--|
-------------------------|--------------------------|-------------------------|
-------------------------|--------------------------|-------------------------|


        PM                      PM PM PM    PM             PM PM PM PM PM PM  
  E  E  E  E  Q    Q       Q    E  E  E  E  E  E     E  E  E  E  E  E  E  E   
------------------------|-------------------------|--------------------------|
------------------------|-------------------------|--------------------------|
--L--2-----5--L----5----|-------------------------|--------------------------|
--L--2--2--5--L----5----|--3----3--3--3--2--2--0--|--L--0--0--0--0--0--0--0--|
--L--0--0--3--L----3----|--5----5--5--5--3--3--1--|--L--1--1--1--1--1--1--1--|
------------------------|-------------------------|--------------------------|
------------------------|-------------------------|--------------------------|


       PM PM       PM             PM PM PM PM PM PM         PM PM PM    PM     
  Q    E  E  E  E  E  E     E  E  E  E  E  E  E  E     Q    E  E  E  E  E  E   
-------------------------|--------------------------|-------------------------|
-------------------------|--------------------------|-------------------------|
-------------------------|--------------------------|-------------------------|
--2----2--2--3--2--2-----|-----3--3--3--3--3--3--3--|--3----3--3--3--2--2--0--|
--3----3--3--3--3--3--5--|--L-----5--5--5--5--5--5--|--5----5--5--5--3--3--1--|
-------------------------|--------------------------|-------------------------|
-------------------------|--------------------------|-------------------------|


        PM PM PM PM PM PM       PM PM    PM PM    PM  
  E  E  E  E  E  E  E  E     E  E  E  E  E  E  E  E   
--------------------------|--------------------------|
--------------------------|--------------------------|
--------------------------|--5--------5--------5-----|
--L--0--0--0--0--0--0--0--|--5--5--5--5--5--5--5--5--|
--L--1--1--1--1--1--1--1--|--3--3--3--3--3--3--3--3--|
--------------------------|--------------------------|
--------------------------|--------------------------|


     PM PM    PM PM    PM         PM PM PM    PM             PM PM PM PM PM PM  
  E  E  E  E  E  E  E  E     Q    E  E  E  E  E  E     E  E  E  E  E  E  E  E   
--------------------------|-------------------------|--------------------------|
--------------------------|-------------------------|--------------------------|
--5--------5--------5-----|-------------------------|--------------------------|
--5--5--5--5--5--5--5--5--|----------------------3--|--L--3--------------------|
--3--3--3--3--3--3--3--3--|--3----3--3--3--2--2--3--|--L--3--3--3--3--3--3--3--|
--------------------------|--5----5--5--5--3--3--1--|--L--1--1--1--1--1--1--1--|
--------------------------|-------------------------|--------------------------|


          PM PM    PM             PM PM PM PM PM PM         PM PM PM    PM     
  Q    E  E  E  E  E  E     E  E  E  E  E  E  E  E     Q    E  E  E  E  E  E   
-------------------------|--------------------------|-------------------------|
-------------------------|--------------------------|-------------------------|
-------------------------|--------------------------|-------------------------|
-------------------------|--------------------------|----------------------3--|
--2-------2--2--3--2--3--|--L--3--3--3--3--3--3--3--|--3----3--3--3--2--2--3--|
--3----3--3--3--3--3--5--|--L--5--5--5--5--5--5--5--|--5----5--5--5--3--3--1--|
-------------------------|--------------------------|-------------------------|


        PM PM PM PM PM PM       PM PM    PM PM    PM  
  E  E  E  E  E  E  E  E     E  E  E  E  E  E  E  E   
--------------------------|--------------------------|
--------------------------|--------------------------|
--------------------------|--------------------------|
--L--3--------------------|--5--------5--------5-----|
--L--3--3--3--3--3--3--3--|--5--5--5--5--5--5--5--5--|
--L--1--1--1--1--1--1--1--|--3--3--3--3--3--3--3--3--|
--------------------------|--------------------------|


     PM PM    PM PM    PM                                          
  E  E  E  E  E  E  E  E                                           
--------------------------|----|----|----|----|----|----|----|----|
--------------------------|----|----|----|----|----|----|----|----|
--------------------------|----|----|----|----|----|----|----|----|
--5--------5--------5-----|----|----|----|----|----|----|----|----|
--5--5--5--5--5--5--5--5--|----|----|----|----|----|----|----|----|
--3--3--3--3--3--3--3--3--|----|----|----|----|----|----|----|----|
--------------------------|----|----|----|----|----|----|----|----|


       PM PM PM    PM             PM PM PM PM PM PM         PM PM       PM     
  Q    E  E  E  E  E  E     E  E  E  E  E  E  E  E     Q    E  E  E  E  E  E   
-------------------------|--------------------------|-------------------------|
-------------------------|--------------------------|-------------------------|
-------------------------|--------------------------|-------------------------|
--3----3--3--3--2--2--0--|--L--0--0--0--0--0--0--0--|--2----2--2--3--2--2--3--|
--5----5--5--5--3--3--1--|--L--1--1--1--1--1--1--1--|--3----3--3--3--3--3--5--|
-------------------------|--------------------------|-------------------------|
-------------------------|--------------------------|-------------------------|


        PM PM PM PM PM PM         PM PM PM    PM             PM PM PM PM PM PM  
  E  E  E  E  E  E  E  E     Q    E  E  E  E  E  E     E  E  E  E  E  E  E  E   
--------------------------|-------------------------|--------------------------|
--------------------------|-------------------------|--------------------------|
--------------------------|-------------------------|--------------------------|
--L--3--3--3--3--3--3--3--|--3----3--3--3--2--2--0--|--L--0--0--0--0--0--0--0--|
--L--5--5--5--5--5--5--5--|--5----5--5--5--3--3--1--|--L--1--1--1--1--1--1--1--|
--------------------------|-------------------------|--------------------------|
--------------------------|-------------------------|--------------------------|


       PM PM       PM             PM                      PM PM PM    PM     
  Q    E  E  E  E  E  E     E  E  E  E  Q    Q       Q    E  E  E  E  E  E   
-------------------------|------------------------|-------------------------|
-------------------------|------------------------|-------------------------|
----------------------2--|--L--2-----5--L----5----|-------------------------|
--2----2--2--2--3--2--2--|--L--2--2--5--L----5----|--3----3--3--3--2--2--0--|
--3----3--3--3--3--3--0--|--L--0--0--3--L----3----|--5----5--5--5--3--3--1--|
-------------------------|------------------------|-------------------------|
-------------------------|------------------------|-------------------------|


        PM PM PM PM PM PM         PM PM       PM             PM PM PM PM PM PM  
  E  E  E  E  E  E  E  E     Q    E  E  E  E  E  E     E  E  E  E  E  E  E  E   
--------------------------|-------------------------|--------------------------|
--------------------------|-------------------------|--------------------------|
--------------------------|-------------------------|--------------------------|
--L--0--0--0--0--0--0--0--|--2----2--2--3--2--2-----|-----3--3--3--3--3--3--3--|
--L--1--1--1--1--1--1--1--|--3----3--3--3--3--3--5--|--L-----5--5--5--5--5--5--|
--------------------------|-------------------------|--------------------------|
--------------------------|-------------------------|--------------------------|


       PM PM PM    PM             PM PM PM PM PM PM       PM PM    PM PM    PM  
  Q    E  E  E  E  E  E     E  E  E  E  E  E  E  E     E  E  E  E  E  E  E  E   
-------------------------|--------------------------|--------------------------|
-------------------------|--------------------------|--------------------------|
-------------------------|--------------------------|--5--------5--------5-----|
--3----3--3--3--2--2--0--|--L--0--0--0--0--0--0--0--|--5--5--5--5--5--5--5--5--|
--5----5--5--5--3--3--1--|--L--1--1--1--1--1--1--1--|--3--3--3--3--3--3--3--3--|
-------------------------|--------------------------|--------------------------|
-------------------------|--------------------------|--------------------------|


     PM PM    PM PM    PM                                            
  E  E  E  E  E  E  E  E     E  H.           E     W                 
--------------------------|---------------------|-------------------|
--------------------------|---------------------|-------------------|
--5--------5--------5-----|---------------------|-------------------|
--5--5--5--5--5--5--5--5--|--2---------------2--|-------------------|
--3--3--3--3--3--3--3--3--|--2---------------2--|-------------------|
--------------------------|--0---------------0--|-------------------|
--------------------------|---------------------|-------------------|


  E  E  H.                    E  H.           E     W                 
---------------------|-----|---------------------|-------------------|
---------------------|-----|---------------------|-------------------|
---------------------|-----|---------------------|-------------------|
--2------------------|-----|--2---------------2--|-------------------|
--2------------------|-----|--2---------------2--|-------------------|
--0------------------|-----|--0---------------0--|-------------------|
---------------------|-----|---------------------|-------------------|


  E  E  H.                        
---------------------|-----|-----|
---------------------|-----|-----|
---------------------|-----|-----|
--2------------------|-----|-----|
--2------------------|-----|-----|
--0------------------|-----|-----|
---------------------|-----|-----|


     PM PM PM PM PM PM PM PM PM PM PM PM PM PM  
  E  S  S  S  S  S  S  S  S  S  S  S  S  S  S   
-----------------------------------------------|
-----------------------------------------------|
--9--------------------------------------------|
--9--------------------------------------------|
--7--7--7--7--7--7--7--7--7--7--7--7--7--7--7--|
-----------------------------------------------|
-----------------------------------------------|


  PM PM    PM PM PM PM              
  S  S  E  S  S  S  S   Q     Q     
-----------------------------------|
-----------------------------------|
--------9--------------------------|
--------9--------------10----10----|
--7--7--7--7--7--7--7--10----10----|
------------------------8-----8----|
-----------------------------------|


     PM PM PM PM    PM PM PM PM PM PM PM PM  
  E  S  S  S  S  E  S  S  S  S  S  S  S  S   
--------------------------------------------|
--------------------------------------------|
--9--------------9--------------------------|
--9--------------9--------------------------|
--7--7--7--7--7--7--7--7--7--7--7--7--7--7--|
--------------------------------------------|
--------------------------------------------|


  PM PM    PM PM PM PM              
  S  S  E  S  S  S  S   Q     Q     
-----------------------------------|
-----------------------------------|
--------9--------------------------|
--------9--------------10----10----|
--7--7--7--7--7--7--7--10----10----|
------------------------8-----8----|
-----------------------------------|


     PM PM PM PM PM PM PM PM PM PM PM PM PM PM  
  E  S  S  S  S  S  S  S  S  S  S  S  S  S  S   
-----------------------------------------------|
-----------------------------------------------|
--9--------------------------------------------|
--9--------------------------------------------|
--7--7--7--7--7--7--7--7--7--7--7--7--7--7--7--|
-----------------------------------------------|
-----------------------------------------------|


  PM PM    PM PM PM PM              
  S  S  E  S  S  S  S   Q     Q     
-----------------------------------|
-----------------------------------|
--------9--------------------------|
--------9--------------10----10----|
--7--7--7--7--7--7--7--10----10----|
------------------------8-----8----|
-----------------------------------|


     PM PM PM PM    PM PM PM PM PM PM PM PM  
  E  S  S  S  S  E  S  S  S  S  S  S  S  S   
--------------------------------------------|
--------------------------------------------|
--9--------------9--------------------------|
--9--------------9--------------------------|
--7--7--7--7--7--7--7--7--7--7--7--7--7--7--|
--------------------------------------------|
--------------------------------------------|


  PM PM    PM PM PM PM              
  S  S  E  S  S  S  S   Q     Q     
-----------------------------------|
-----------------------------------|
--------9--------------------------|
--------9--------------10----10----|
--7--7--7--7--7--7--7--10----10----|
------------------------8-----8----|
-----------------------------------|


     PM PM PM PM PM PM PM PM PM PM PM PM PM PM  
  E  S  S  S  S  S  S  S  S  S  S  S  S  S  S   
-----------------------------------------------|
-----------------------------------------------|
--7--------------------------------------------|
--7--------------------------------------------|
--5--5--5--5--5--5--5--5--5--5--5--5--5--5--5--|
-----------------------------------------------|
-----------------------------------------------|


  PM PM    PM PM PM PM                 PM PM PM PM    PM PM PM PM PM PM PM PM  
  S  S  E  S  S  S  S  Q    Q       E  S  S  S  S  E  S  S  S  S  S  S  S  S   
---------------------------------|--------------------------------------------|
---------------------------------|--------------------------------------------|
--------7------------------------|--7--------------7--------------------------|
--------7--------------8----8----|--7--------------7--------------------------|
--5--5--5--5--5--5--5--8----8----|--5--5--5--5--5--5--5--5--5--5--5--5--5--5--|
-----------------------6----6----|--------------------------------------------|
---------------------------------|--------------------------------------------|


  PM PM    PM PM PM PM            
  S  S  E  S  S  S  S  Q    Q     
---------------------------------|
---------------------------------|
--------7------------------------|
--------7--------------8----8----|
--5--5--5--5--5--5--5--8----8----|
-----------------------6----6----|
---------------------------------|


     PM PM PM PM PM PM PM PM PM PM PM PM PM PM  
  E  S  S  S  S  S  S  S  S  S  S  S  S  S  S   
-----------------------------------------------|
-----------------------------------------------|
--7--------------------------------------------|
--7--------------------------------------------|
--5--5--5--5--5--5--5--5--5--5--5--5--5--5--5--|
-----------------------------------------------|
-----------------------------------------------|


  PM PM    PM PM PM PM                 PM PM PM PM    PM PM PM PM PM PM PM PM  
  S  S  E  S  S  S  S  Q    Q       E  S  S  S  S  E  S  S  S  S  S  S  S  S   
---------------------------------|--------------------------------------------|
---------------------------------|--------------------------------------------|
--------7------------------------|--7--------------7--------------------------|
--------7--------------8----8----|--7--------------7--------------------------|
--5--5--5--5--5--5--5--8----8----|--5--5--5--5--5--5--5--5--5--5--5--5--5--5--|
-----------------------6----6----|--------------------------------------------|
---------------------------------|--------------------------------------------|


  PM PM    PM PM PM PM                                                      
  S  S  E  S  S  S  S  Q    Q                                               
---------------------------------|-----|-----|-----|-----|-----|-----|-----|
---------------------------------|-----|-----|-----|-----|-----|-----|-----|
--------7------------------------|-----|-----|-----|-----|-----|-----|-----|
--------7--------------8----8----|-----|-----|-----|-----|-----|-----|-----|
--5--5--5--5--5--5--5--8----8----|-----|-----|-----|-----|-----|-----|-----|
-----------------------6----6----|-----|-----|-----|-----|-----|-----|-----|
---------------------------------|-----|-----|-----|-----|-----|-----|-----|


                                   PM PM PM PM PM PM PM PM PM PM PM PM PM PM  
                                E  S  S  S  S  S  S  S  S  S  S  S  S  S  S   
-----|-----|-----|-----|-----|-----------------------------------------------|
-----|-----|-----|-----|-----|-----------------------------------------------|
-----|-----|-----|-----|-----|--7--------------------------------------------|
-----|-----|-----|-----|-----|--7--------------------------------------------|
-----|-----|-----|-----|-----|--5--5--5--5--5--5--5--5--5--5--5--5--5--5--5--|
-----|-----|-----|-----|-----|-----------------------------------------------|
-----|-----|-----|-----|-----|-----------------------------------------------|


  PM            PM PM PM       PM PM PM PM PM PM PM PM PM PM PM PM PM PM  
  E  Q    E  E  E  E  E     E  S  S  S  S  S  S  S  S  S  S  S  S  S  S   
-------------------------|-----------------------------------------------|
-------------------------|-----------------------------------------------|
-----7----7--7-----------|--7--------------------------------------------|
--7--7----5--7--5--3--5--|--7--------------------------------------------|
--5--5----5--5--3--1--3--|--5--5--5--5--5--5--5--5--5--5--5--5--5--5--5--|
-------------------------|-----------------------------------------------|
-------------------------|-----------------------------------------------|


  PM             PM   SH                          PM              PM PM PM  
  E  Q    E   E  E    Q       W                   E  E   E  E  E  E  E  E   
---------------------------|-------------------|---------------------------|
---------------------------|-------------------|---------------------------|
-----7----5s--7------------|--5----------------|-----5s--3--5--7-----------|
--7--7----5s--7------------|--5----------------|--5--x------x--7--5--3--5--|
--5--5----3s--5--8--<>8----|--3----------------|--3--3s--1--3--5--3--1--3--|
---------------------------|-------------------|---------------------------|
---------------------------|-------------------|---------------------------|


  W                   W                 
-------------------|-------------------|
-------------------|-------------------|
--3----------------|--5----------------|
--3----------------|--5----------------|
--1----------------|--3----------------|
-------------------|-------------------|
-------------------|-------------------|


     PM PM PM PM PM PM PM PM PM PM PM PM PM PM    PM              PM PM PM  
  E  S  S  S  S  S  S  S  S  S  S  S  S  S  S     E  Q    E   E   E  E  E   
-----------------------------------------------|---------------------------|
-----------------------------------------------|---------------------------|
--7--------------------------------------------|-----7----5s--7------------|
--7--------------------------------------------|--7--7----5s--7--10--7--5--|
--5--5--5--5--5--5--5--5--5--5--5--5--5--5--5--|--5--5----3s--5---8--5--3--|
-----------------------------------------------|---------------------------|
-----------------------------------------------|---------------------------|


     PM PM PM PM PM PM PM PM PM PM PM PM PM PM  
  E  S  S  S  S  S  S  S  S  S  S  S  S  S  S   
-----------------------------------------------|
-----------------------------------------------|
--7--------------------------------------------|
--7--------------------------------------------|
--5--5--5--5--5--5--5--5--5--5--5--5--5--5--5--|
-----------------------------------------------|
-----------------------------------------------|


  PM PM PM PM   SH PM     PM PM PM                      
  S  S  S  S    E  E   E  E  E  E     W                 
-----------------------------------|-------------------|
-----------------------------------|-------------------|
----------------------10-----------|--5----------------|
--------------<>7-----10--9--7--5--|--5----------------|
--8--8--8--8-------5---8--7--5--3--|--3----------------|
-----------------------------------|-------------------|
-----------------------------------|-------------------|


  PM                  PM PM    PM PM PM PM PM PM PM PM PM PM PM PM PM PM PM  
  E  E   E  E   E  E  E  E     S  S  S  S  S  S  S  S  S  S  S  S  S  S  E   
----------------------------|-----------------------------------------------|
----------------------------|-----------------------------------------------|
-----5s--7--5s--7--5--------|-----------------------------------------------|
--5--x------x------x-----5--|-----------------------------------------------|
--3--3s--5--3s--5--3--0--3--|--1--1--1--1--3--3--1--1--5--5--1--1--3--3--1--|
----------------------------|-----------------------------------------------|
----------------------------|-----------------------------------------------|


  PM PM PM PM PM PM PM PM PM   PH             PM PM PM PM PM PM  
  S  S  E  S  S  E  S  S  E    Q       Q.     S  S  E  E  E  E   
------------------------------------|---------------------------|
------------------------------------|---------------------------|
------------------------------------|--3------------------------|
-----------------------------<>2----|--3------------3--3--3--3--|
--3--3--3--3--3--3--3--3--3---------|--1------1--1--1--1--0--1--|
------------------------------------|---------------------------|
------------------------------------|---------------------------|


       PM PM                 T           T     T           T     T         
  Q    E  E  E   E  Q        S  S  S  S  S  S  S  S  S  S  S  S  S  S  E   
-------------------------|------------------------------------------------|
-------------------------|------------------------------------------------|
--5----------5------5----|------------------------------------------------|
--5----5--5--3h--5--5----|------------------------------------------------|
--3----3--3--3------3----|--12p-8p-5h-8-12p-8-10p-8p-5h-8-12p-8-10p-8p-5--|
-------------------------|------------------------------------------------|
-------------------------|------------------------------------------------|


  T          T    T          T    T         
  S  S  S  S S  S S  S  S  S S  S S  S  E   
-------------------------------------------|
-------------------------------------------|
-------------------------------------------|
-------------------------------------------|
--8p-5p-1h-5-8p-5-7p-5p-1h-5-8p-5-7p-5p-1--|
-------------------------------------------|
-------------------------------------------|


  PM PM PM PM PM PM PM PM PM PM PM PM PM PM  
  E  S  S  S  S  S  S  E  S  S  S  S  S  S   
--------------------------------------------|
--------------------------------------------|
--------------------------------------------|
--5--------------------5--------------------|
--3--3--3--3--3--3--3--3--3--3--3--3--3--3--|
--------------------------------------------|
--------------------------------------------|


  PM PM PM PM PM PM PM PM PM PM PM PM PM PM                      
  E  S  S  S  S  S  S  E  S  S  S  S  S  S     W                 
--------------------------------------------|-------------------|
--------------------------------------------|-------------------|
--------------------------------------------|-------------------|
--5--------------------5--------------------|--3----------------|
--3--3--3--3--3--3--3--3--3--3--3--3--3--3--|--3----------------|
--------------------------------------------|--1----------------|
--------------------------------------------|-------------------|


                                   PM PM                PM PM PM  
  W                   H.           E  E     H        E  E  E  E   
-------------------|---------------------|-----------------------|
-------------------|---------------------|-----------------------|
-------------------|--3------------------|--5--------L-----------|
--L----------------|--3------------3--3--|--5--------L--5--7--5--|
--L----------------|--1------------0--1--|--3--------L--3--5--3--|
--L----------------|---------------------|-----------------------|
-------------------|---------------------|-----------------------|


  E  E  E  Q    E  E  E     W                 
-------------------------|-------------------|
-------------------------|-------------------|
--7-----7-------5-----3--|--L----------------|
--7-----7-------5-----3--|--L----------------|
--5-----5-------3-----1--|--L----------------|
--------5----------------|-------------------|
-------------------------|-------------------|


     PM PM PM PM PM PM PM PM PM PM PM PM PM PM  
  E  S  S  S  S  S  S  S  S  S  S  S  S  S  S   
-----------------------------------------------|
-----------------------------------------------|
-----------------------------------------------|
--5--------------------------------------------|
--5--------------------------------------------|
--3--3--3--3--3--3--3--3--3--3--3--3--3--3--3--|
-----------------------------------------------|


  PM PM PM PM PM PM PM PM PM PM PM PM PM PM PM PM                      
  S  S  S  S  S  S  S  S  S  S  S  S  S  S  S  S     W                 
--------------------------------------------------|-------------------|
--------------------------------------------------|-------------------|
--------------------------------------------------|--7----------------|
--------------------------------------------------|--7----------------|
--------------------------------------------------|--5----------------|
--3--3--3--3--3--3--3--3--3--3--3--3--3--3--3--3--|-------------------|
--------------------------------------------------|-------------------|


  W                                                                         
-------------------|-------|-------|-------|-------|-------|-------|-------|
-------------------|-------|-------|-------|-------|-------|-------|-------|
--5----------------|-------|-------|-------|-------|-------|-------|-------|
--5----------------|-------|-------|-------|-------|-------|-------|-------|
--3----------------|-------|-------|-------|-------|-------|-------|-------|
-------------------|-------|-------|-------|-------|-------|-------|-------|
-------------------|-------|-------|-------|-------|-------|-------|-------|


-------|-------|-------|-------|-------|-------|-------|-------|-------|
-------|-------|-------|-------|-------|-------|-------|-------|-------|
-------|-------|-------|-------|-------|-------|-------|-------|-------|
-------|-------|-------|-------|-------|-------|-------|-------|-------|
-------|-------|-------|-------|-------|-------|-------|-------|-------|
-------|-------|-------|-------|-------|-------|-------|-------|-------|
-------|-------|-------|-------|-------|-------|-------|-------|-------|


               PM PM                   PM PM PM                      
  H.           E  E     Q.     E   E   E  E  E     W                 
---------------------|--------------------------|-------------------|
---------------------|--------------------------|-------------------|
--7------------------|--7------7----------------|--3----------------|
--7------------7--7--|--7------7--10--10--7--5--|--3----------------|
--5------------5--5--|--5------5---8---8--5--3--|--1----------------|
---------------------|--------------------------|-------------------|
---------------------|--------------------------|-------------------|


  PM PM PM PM PM PM PM PM PM   SH    
  S  S  E  S  S  E  S  S  E    Q     
------------------------------------|
------------------------------------|
------------------------------------|
-----------------------------<>5----|
--3--3--3--3--3--3--3--3--3---------|
------------------------------------|
------------------------------------|


     PM PM PM PM PM PM PM PM PM PM PM PM PM PM  
  E  S  S  S  S  S  S  S  S  S  S  S  S  S  S   
-----------------------------------------------|
-----------------------------------------------|
--7--------------------------------------------|
--7--------------------------------------------|
--5--5--5--5--5--5--5--5--5--5--5--5--5--5--5--|
-----------------------------------------------|
-----------------------------------------------|


  PM PM PM PM PM PM PM PM PM PM PM PM PM PM PM PM                      
  S  S  S  S  S  S  S  S  S  S  S  S  S  S  S  S     W                 
--------------------------------------------------|-------------------|
--------------------------------------------------|-------------------|
--------------------------------------------------|--2----------------|
--------------------------------------------------|--2----------------|
--5--5--5--5--5--5--5--5--5--5--5--5--5--5--5--5--|--0----------------|
--------------------------------------------------|-------------------|
--------------------------------------------------|-------------------|


  PM PM PM PM PM PM PM PM PM PM  
  S  S  E  E  E  S  S  E  E  E   
--------------------------------|
--------------------------------|
--------------------------------|
--------3--3--3--------5--3--5--|
--1--1--1--0--1--3--3--3--1--3--|
--------------------------------|
--------------------------------|


     PM PM PM PM PM PM PM PM PM PM PM PM PM PM  
  E  S  S  S  S  S  S  S  S  S  S  S  S  S  S   
-----------------------------------------------|
-----------------------------------------------|
-----------------------------------------------|
--3--------------------------------------------|
--3--------------------------------------------|
--1--1--1--1--1--1--1--1--1--1--1--1--1--1--1--|
-----------------------------------------------|


  PM PM PM PM PM PM PM PM PM PM PM PM PM PM PM PM           PM PM PM PM PM PM  
  S  S  S  S  S  S  S  S  S  S  S  S  S  S  S  S     Q.     S  S  E  E  E  E   
--------------------------------------------------|---------------------------|
--------------------------------------------------|---------------------------|
--------------------------------------------------|--3------------------------|
--------------------------------------------------|--3------------3--3--3--3--|
--------------------------------------------------|--1------1--1--1--1--0--1--|
--1--1--1--1--1--1--1--1--1--1--1--1--1--1--1--1--|---------------------------|
--------------------------------------------------|---------------------------|


                                PM PM PM PM PM PM PM PM PM PM PM PM PM PM  
  Q.     E   E  E   E  E     E  S  S  S  S  S  S  S  S  S  S  S  S  S  S   
--------------------------|-----------------------------------------------|
--------------------------|-----------------------------------------------|
--5------5s--7--5s--7--5--|--2--------------------------------------------|
--5------x------x------x--|--2--------------------------------------------|
--3------3s--5--3s--5--3--|--0--0--0--0--0--0--0--0--0--0--0--0--0--0--0--|
--------------------------|-----------------------------------------------|
--------------------------|-----------------------------------------------|


     PM PM PM PM PM PM PM PM PM PM PM PM PM PM  
  E  S  S  S  S  S  S  S  S  S  S  S  S  S  S   
-----------------------------------------------|
-----------------------------------------------|
--3--------------------------------------------|
--3--------------------------------------------|
--1--1--1--1--1--1--1--1--1--1--1--1--1--1--1--|
-----------------------------------------------|
-----------------------------------------------|


     PM PM PM PM PM PM PM PM PM PM PM PM PM PM  
  E  S  S  S  S  S  S  S  S  S  S  S  S  S  S   
-----------------------------------------------|
-----------------------------------------------|
--5--------------------------------------------|
--5--------------------------------------------|
--3--3--3--3--3--3--3--3--3--3--3--3--3--3--3--|
-----------------------------------------------|
-----------------------------------------------|


     PM PM PM PM    PM PM PM PM    PM PM                                  
  E  S  S  S  S  E  S  S  S  S  E  S  S                                   
-----------------------------------------|-------|-------|-------|-------|
-----------------------------------------|-------|-------|-------|-------|
--5--------------5--------------5--------|-------|-------|-------|-------|
--5--------------5--------------5--------|-------|-------|-------|-------|
--3--3--3--3--3--3--3--3--3--3--3--3--3--|-------|-------|-------|-------|
-----------------------------------------|-------|-------|-------|-------|
-----------------------------------------|-------|-------|-------|-------|


-------|-------|-------|-------|-------|-------|-------|-------|-------|-------|
-------|-------|-------|-------|-------|-------|-------|-------|-------|-------|
-------|-------|-------|-------|-------|-------|-------|-------|-------|-------|
-------|-------|-------|-------|-------|-------|-------|-------|-------|-------|
-------|-------|-------|-------|-------|-------|-------|-------|-------|-------|
-------|-------|-------|-------|-------|-------|-------|-------|-------|-------|
-------|-------|-------|-------|-------|-------|-------|-------|-------|-------|


-------|-------|-------|-------|-------|-------|-------|-------|-------|-------|
-------|-------|-------|-------|-------|-------|-------|-------|-------|-------|
-------|-------|-------|-------|-------|-------|-------|-------|-------|-------|
-------|-------|-------|-------|-------|-------|-------|-------|-------|-------|
-------|-------|-------|-------|-------|-------|-------|-------|-------|-------|
-------|-------|-------|-------|-------|-------|-------|-------|-------|-------|
-------|-------|-------|-------|-------|-------|-------|-------|-------|-------|


-------------------|-------------------|-------------------|-------------------|
-------------------|-------------------|-------------------|-------------------|
-------------------|-------------------|-------------------|-------------------|
-------------------|-------------------|-------------------|-------------------|
-------------------|-------------------|-------------------|-------------------|
-------------------|-------------------|-------------------|-------------------|
-------------------|-------------------|-------------------|-------------------|


-------------------|-------------------|-------------------|-------------------|
-------------------|-------------------|-------------------|-------------------|
-------------------|-------------------|-------------------|-------------------|
-------------------|-------------------|-------------------|-------------------|
-------------------|-------------------|-------------------|-------------------|
-------------------|-------------------|-------------------|-------------------|
-------------------|-------------------|-------------------|-------------------|


-------------------|-------------------|-------------------|-------------------|
-------------------|-------------------|-------------------|-------------------|
-------------------|-------------------|-------------------|-------------------|
-------------------|-------------------|-------------------|-------------------|
-------------------|-------------------|-------------------|-------------------|
-------------------|-------------------|-------------------|-------------------|
-------------------|-------------------|-------------------|-------------------|


                                          E  Q.     H         
-------------------|-------------------|---------------------|
-------------------|-------------------|---------------------|
-------------------|-------------------|--5------------------|
-------------------|-------------------|--5------------------|
-------------------|-------------------|--3------------------|
-------------------|-------------------|---------------------|
-------------------|-------------------|---------------------|


                           PM PM PM PM PM PM PM PM PM PM PM PM PM PM  
  E  Q.     H           E  S  S  S  S  S  S  S  S  S  S  S  S  S  S   
---------------------|-----------------------------------------------|
---------------------|-----------------------------------------------|
--5------------------|--7--------------------------------------------|
--5------------------|--7--------------------------------------------|
--3------------------|--5--5--5--5--5--5--5--5--5--5--5--5--5--5--5--|
---------------------|-----------------------------------------------|
---------------------|-----------------------------------------------|


  PM PM PM PM PM PM PM PM PM PM PM PM PM PM PM PM  
  S  S  S  S  S  S  S  S  S  S  S  S  S  S  S  S   
--------------------------------------------------|
--------------------------------------------------|
--------------------------------------------------|
--------------------------------------------------|
--5--5--5--5--5--5--5--5--5--5--5--5--5--5--5--5--|
--------------------------------------------------|
--------------------------------------------------|


     PM PM PM PM PM PM PM PM PM PM PM PM PM PM  
  E  S  S  S  S  S  S  S  S  S  S  S  S  S  S   
-----------------------------------------------|
-----------------------------------------------|
--7--------------------------------------------|
--7--------------------------------------------|
--5--5--5--5--5--5--5--5--5--5--5--5--5--5--5--|
-----------------------------------------------|
-----------------------------------------------|


  PM PM PM PM PM PM PM PM PM PM PM PM PM PM PM PM  
  S  S  S  S  S  S  S  S  S  S  S  S  S  S  S  S   
--------------------------------------------------|
--------------------------------------------------|
--------------------------------------------------|
--------------------------------------------------|
--5--5--5--5--5--5--5--5--5--5--5--5--5--5--5--5--|
--------------------------------------------------|
--------------------------------------------------|


     PM PM PM PM    PM PM PM PM PM PM PM PM  
  E  S  S  S  S  E  S  S  S  S  S  S  S  S   
--------------------------------------------|
--------------------------------------------|
--7--------------7--------------------------|
--7--------------7--------------------------|
--5--5--5--5--5--5--5--5--5--5--5--5--5--5--|
--------------------------------------------|
--------------------------------------------|


     PM PM    PM PM    PM PM    PM PM                                 
  E  S  S  E  S  S  E  S  S  E  S  S     S S S S E  E  S S S S E  E   
--------------------------------------|------------------------------|
--------------------------------------|------------------------------|
--7--------7--------7--------7--------|--7-7-7-7-7-----5-5-5-5-5-----|
--7--------7--------7--------7--------|--7-7-7-7-7-----5-5-5-5-5-----|
--5--5--5--5--5--5--5--5--5--5--5--5--|--5-5-5-5-5-----3-3-3-3-3-----|
--------------------------------------|------------------------------|
--------------------------------------|------------------------------|


                                                     PM   PM   PM   PM    
  S S S S E  E  S S S S E  E     W                   Q    Q    Q    Q     
------------------------------|-------------------|----------------------|
------------------------------|-------------------|----------------------|
--3-3-3-3-3-------------------|--2----------------|----------------------|
--3-3-3-3-3-----3-3-3-3-3-----|--2----------------|--2---------2----5----|
--1-1-1-1-1-----3-3-3-3-3-----|--0----------------|--0----5----0----3----|
----------------1-1-1-1-1-----|-------------------|-------3--------------|
------------------------------|-------------------|----------------------|


  S S S S S S S S S S S S S S S S    S S S S S S S S S S S S S S S S  
----------------------------------|----------------------------------|
----------------------------------|----------------------------------|
----------------------------------|----------------------------------|
------------------3-3-3-3-3-3-3-3-|----------------------------------|
--5-5-5-5-5-5-5-5-----------------|--3-3-3-3-3-3-3-3-1-1-1-1-0-0-0-0-|
----------------------------------|----------------------------------|
----------------------------------|----------------------------------|


  E  E  H.              E  Q.     H           
---------------------|----------------------||
---------------------|----------------------||
--2------------------|--7--7------L\--------||
--2------------------|--7--7------L\--------||
--0------------------|--5--5------L\--------||
---------------------|----------------------||
---------------------|----------------------||


***************************************************************************************
#######################################################################################
***************************************************************************************




Tablature Legend
----------------
L - tied note
x - dead note
g - grace note
(n) - ghost note
> - accentuded note
NH - natural harmonic
AH - artificial harmonic
TH - tapped harmonic
SH - semi harmonic
PH - pitch harmonic
h - hammer on
p - pull off
b - bend
br - bendRelease
pb - preBend
pbr - preBendRelease
brb - bendReleaseBend
\n/ - tremolo bar dip
\n - tremolo bar dive
-/n - tremolo bar Release up
/n\ - tremolo bar inverted dip
/n - tremolo bar return
-\n - tremolo bar Release down
S - shift slide
s - legato slide
/ -  slide into from below or out of upwards
\ -  slide into from above or out of downwards
~ - vibrato
W - wide vibrato
tr - trill
TP - tremolo picking
T - tapping
S - slap
P - pop
< - fade in
^ - brush up
v - brush down


Special thanks to Reznik00 (http://profile.ultimate-guitar.com/Reznik00/) for making the
source guitar pro tab***********************
Tap to rate this tab
 
# A B C D E F G H I J K L M N O P Q R S T U V W X Y Z