Song name
# A B C D E F G H I J K L M N O P Q R S T U V W X Y Z

Dragonforce - Fallen World tab

fallen world

intro



E||--------------------------------------------------|
B||----------------------------7-------10-8-7--5~~---|
G||-------7--9\11~-------7--9-----9--7---------------|
D||----\9-------------\9-----------------------------|
A||--------------------------------------------------|
E||--------------------------------------------------|



-------------------------------------------------------|
--\10--12-12--10--12~-----\14-15-17-\19-17-15-15-17-15-|
-------------------------------------------------------|
-------------------------------------------------------|
-------------------------------------------------------|
-------------------------------------------------------|


-17--15--14--12~~---|
--------------------|
--------------------|
--------------------|
--------------------|
--------------------|
Tap to rate this tab
# A B C D E F G H I J K L M N O P Q R S T U V W X Y Z