Song name
# A B C D E F G H I J K L M N O P Q R S T U V W X Y Z

Dragonforce - Holding On tab

Written by: _KoD_
Band: Dragonforce
Song: Holding On
Album:  The Power Within (2012)
Tuning: Standard Tuning

Here the two-harmony guitar intro for Holding on by dragonforce. Made by ear, so... 
sorry for mistakes! Hope you like it!




                              _Guitar 1(Lead)_

|-------------7-5-------------------7-5------------------7-5-----------------|
|-17~-------------8-5-8-10-5~-----------8-5-8-10-3~----------8-5-8-10-1~-----|
|----------------------------------------------------------------------------|
|----------------------------------------------------------------------------|
|----------------------------------------------------------------------------|
|----------------------------------------------------------------------------|


-7-5------------------------------|
-----8-5-8-10-/4~---7~------------|
----------------------------------|
----------------------------------|
----------------------------------|
----------------------------------|



                             _Guitar 2_

|----------------------------------------------------------------------------|
|-17~---------7-5------------------7-5------------------7-5------------------|
|-----------------7-6-7-9-4~-----------7-6-7-9-2~-----------7-6-7-9-0~-------|
|----------------------------------------------------------------------------|
|----------------------------------------------------------------------------|
|----------------------------------------------------------------------------|


-----------------------------|
--7-5---------/4~--7~--------|
------7-6-7-9----------------|
-----------------------------|
-----------------------------|
-----------------------------|
Tap to rate this tab
 
# A B C D E F G H I J K L M N O P Q R S T U V W X Y Z