Guitaretab - guitar tabs
Song name
# A B C D E F G H I J K L M N O P Q R S T U V W X Y Z

Dragonforce - Above The Winter Moonlight tab

ABOVE THE WINTER MOONLIGHT SOLO
4:33 - 4:50
TABBED BY: nate pritchett

This is all i have for the moment, more is coming soon
I think it's pretty good but if anyone can help finish this it'd be greatly appreciated. Thx

|--------------------------------------------|
|--------------------------------------------|
|--10-10-10-10--8-7-8-7--7*-----------------|
|-----------------------8---10*-8*-----------|
|--------------------------------------------|
|--------------------------------------------|

|--------6*-6*-8-10-----------|
|---6-6*------------11*-------|
|-7---------------------------|
|-----------------------------|
|-----------------------------|
|-----------------------------|

|-10-10-10-10-10-10-11-10---13b-11-10-----|
|-------------------------11--------------|
|-----------------------------------------|
|-----------------------------------------|
|-----------------------------------------|
|-----------------------------------------|
[ Tab from: http://www.guitaretab.com/d/dragonforce/70445.html ]
|-10-11-13----------------------------------|
|----------11-10-11-13------1111-13-11*-----|
|----------------------1010-----------------|
|-------------------------------------------|
|-------------------------------------------|
|-------------------------------------------|

|----------------------13------11-----10*----|
|------11------13----------------------------|
|-1010----1010----1010----1010---1010--------|
|--------------------------------------------|
|--------------------------------------------|
|--------------------------------------------|

|--------------------------------------------|
|----------------------15-13-11-13-----------|
|------14------15------------------14-15-----|
|-1313----1313----1313-----------------------|
|--------------------------------------------|
|--------------------------------------------|

|--------------------------------------------|
|------11------13------15-13-11-13-15-16-----|
|-1010----1010----1010-----------------------|
|--------------------------------------------|
|--------------------------------------------|
|--------------------------------------------|

|--------------------------------------------|
|-15h16p15-13---------????????????-----------|
|---------------------????????????-----------|
|---------------------????????????-----------|
|--------------------------------------------|
|--------------------------------------------|
Related for Above The Winter Moonlight tab