Song name
# A B C D E F G H I J K L M N O P Q R S T U V W X Y Z

Dragonforce - Storming The Burning Feilds tab

-----------------------------------------------------------------------------|
----------------|STORMING THE BURNING FIELDS-DRAGONFORCE|--------------------|
-----------------------------------------------------------------------------|
Tabbed by:Tom
Email:WHY THE HELL SHOULD I TELL YOU

Tuning:standard

Its bloody hard to find a tab for this song and its a bloody hard song too so im gonna
and tab it (or at lest most of it-if not some of it-ok then maybe only a little bit) 
GOES!
SORRY I SPELT FIELDS WRONG (I CANT CHANGE IT) :(

e|--12--7-8-7--13--/--/--/--------|
B|----------------/--/--/---------|Pull up and down on the wammy bar!
G|--------------------------------|
D|--------------------------------|
A|--------------------------------|
E|--------------------------------|

e|-------------------------------------------|
B|-------------------------------------------|
G|--7777777-9999999-121212121212-99999999999-|x3
D|-------------------------------------------|
A|-------------------------------------------|
E|-------------------------------------------|-
                               T T T T T T T T T T T T T T T
e|----------------------------181718171817181718171817181718----------------|
B|--T-T-T-T-T-T-T-T-T-T-T-T-T-----------------------------------------------|
G|-15141514151415141514151415-----------------------------------------------|
D|--------------------------------------------------------------------------|
A|--------------------------------------------------------------------------|
E|--------------------------------------------------------------------------|

e|-------------------------------------------|
B|-------------------------------------------|
G|--7777777-9999999-121212121212-99999999999-|x3
D|-------------------------------------------|
A|-------------------------------------------|
E|-------------------------------------------|

e|----------------------------18//////////////--------------------------------|
B|--T-T-T-T-T-T-T-T-T-T-T-T-T-------------------------------------------------|
G|-15141514151415141514151415-------------------------------------------------|
D|----------------------------------------------------------------------------|
A|----------------------------------------------------------------------------|
E|----------------------------------------------------------------------------|

e|-------------------------------------------|
B|-------------------------------------------|
G|--7777777-9999999-121212121212-99999999999-|x3
D|-------------------------------------------|
A|-------------------------------------------|
E|-------------------------------------------|

e|----------------------------18//////////////--------------------------------|
B|----------------------------------------------------------------------------|
G|-15////////////-------------------------------------------------------------|
D|----------------------------------------------------------------------------|
A|----------------------------------------------------------------------------|
E|----------------------------------------------------------------------------|

e|-------------------------------------------|  e|--------------------------|
B|-------------------------------------------|  B|--------------------------|
G|--7777777-9999999-121212121212-99999999999-|x2G|-777777777-9999999999-----|
D|-------------------------------------------|  D|--------------------------|
A|-------------------------------------------|  A|--------------------------|
E|-------------------------------------------|  E|--------------------------|


e|-13////////-12////////-10////////-9/////////--------------------------------|
B|----------------------------------------------------------------------------|
G|----------------------------------------------------------------------------|
D|----------------------------------------------------------------------------|
A|----------------------------------------------------------------------------|
E|----------------------------------------------------------------------------|

e|-x/////////////////-12///////////--10b12-10b12-10b12------------------------|
B|-x////////////////----------------------------------------------------------|
G|----------------------------------------------------------------------------|
D|----------------------------------------------------------------------------|
A|----------------------------------------------------------------------------|
E|----------------------------------------------------------------------------|

Right thats the intro there for you i know theres 1 bit theat itsnt right but i preffer
way that ive done it lol and some of the wammys might be in the wrong place but its a
rough version.

e|---------------------------------------------------------------------O-D----------|
B|---------------------------------------------------------------------L-E----------|
G|------------------------------7~~------------------------------9*-----M-C----|
D|--------7-------7-9-10-7-9-10------------7-------7-9-10-7-9-10-------E-K----------|
A|-7-9-10---9-10--------------------7-9-10---9-10----------------------R-I----------|
E|---------------------------------------------------------------------T-P----------|
PM..................................................................
e|--------------------------------------------------------------------------|
B|--------------------------------------------------------------------------|
G|--------------------------------------------------------------------------|
D|--------7-------7-9-10-9-7----7--------7--------7-------------------------|
A|-7-9-10---9-10-------------10---10-9-7---10-9-7---10-9-7------------------|
E|--------------------------------------------------------------------------|
PM.................................................................
e|----------------------------------|
B|----------------------------------|
G|-9~--------5~------------------7~-|x2
D|-9~--------5~--------5~--------7~-|
A|-7~--------3~--------5~--------5~-|
E|---------------------3~-----------|

e|--------------------------------------------------------------------------|
B|--------------------------------------------------------------------------|
G|--------------------------------------------------------------------------|
D|-----------------------------5555555555555555-77777777777777777-----------|
A|-777777777777-99999999999999----------------------------------------------|
E|--------------------------------------------------------------------------|
                                                      T T T T T T T T T T T
e|---------------------------------------------------2019201920192019201920-|
B|--------------------------------------------------------------------------|
G|--------------------------------------------------------------------------|
D|-----------------------------------7777777777777777-----------------------|
A|-7777777777777777-9999999999999999----------------------------------------|
E|--------------------------------------------------------------------------|
                                                           T T T T T T T T T
e|-----------------------------------------------------|  |-2019201920192019|
B|-----------------------------------------------------|  |-----------------|
G|-9xx-------------------------------------------------|X2|-----------------|
D|-9xx-9xx-11xx-7xx------------------------------------|  |-----------------|
A|-7xx-9xx-11xx-7xx------6--7*--7*/9-----7---8---8*/10-|  |-----------------|
E|-----7xx--9xx-5xx--7-7--7---7------8-8---8---8-------|  |-----------------|

Thats a basic version of a very complex song for you there as far as i know its the only
on the internet that isnt GP1,GP2,GP3,GP4 or GP5 so i quite chuffed with myself thats
for now if you have any corrections just submit them! PLEASE RATE oh and if you copy 
it onto another site them please give me the credit!

| /  slide up
|   slide down
| h  hammer-on
| p  pull-off
| ~  vibrato
| +  harmonic
| x  Mute note
=============================================================================
Tap to rate this tab
 
# A B C D E F G H I J K L M N O P Q R S T U V W X Y Z