Guitaretab - guitar tabs
Song name
# A B C D E F G H I J K L M N O P Q R S T U V W X Y Z

Dragonforce - Cry For Eternity tab

CRY FOR ETERNITY SOLO
TABBED BY: Nate Pritchett
STANDARD TUNING

5:02  5:31  this is all i have so far, but I'm working on the rest as i wait for this 
be accepted

|-----12--17-15-12-15-12-10----10-12-8=10----|
|---------------------------13---------------|
|--14----------------------------------------|
|--------------------------------------------|
|--------------------------------------------|
|--------------------------------------------|

1)THIS PART AND THE PART DIRECTLY BELOW SOUND AWFUL UNLESS YOU PLAY WITH THE REQUIRED 
AND ACCURACY, BUT IT'S ABOUT 94% CORRECT
|--12h13h12--12--------------121512--12-----|
|----------15--151310--101315------15-------|
|--------------------12---------------------|
|-------------------------------------------|
|-------------------------------------------|
|-------------------------------------------|

2)
|-12-------------------------------------------|
|----15131513--131513----------1315------------|
|------------14-----1412--1214-----------------|
|-----------------------14---------------------|
|----------------------------------------------|
|----------------------------------------------|
[ Tab from: http://www.guitaretab.com/d/dragonforce/74311.html ]
|-20-20-19-17-15-12-15-12-13-10-|-2424-22-25-24---|-24-22-2020-19-----|
|-------------------------------|-----------------|-------------------|
|-------------------------------|-----TWICE-------|-------------------|
|-------------------------------|-----------------|-------------------|
|-------------------------------|-----------------|-------------------|
|-------------------------------|--------------^ALL-X-2^--------------|

|-W--S--|--t20h12p15h12-t20h12p15h12--t19h12p15h12t19h12p15h12-------|
|-H--H--|-------------------------------------------------------------|
|-A--*--|-------------------------------------------------------------|
|-M--T--|----------------REALLY FAST 8 TIMES--------------------------|
|-M-----|-------------------------------------------------------------|
|-Y-----|-------------------------------------------------------------|

|--t22h12p15h12-t22h12p15h12t20h12p15h12-t20h12p15h12-----|
|----------------------------------------------------------|
|----------------------------------------------------------|
|----------------REALLY FAST 8 TIMES-----------------------|
|----------------------------------------------------------|
|----------------------------------------------------------|
Related for Cry For Eternity tab