Song name
# A B C D E F G H I J K L M N O P Q R S T U V W X Y Z

Dragonforce - Soldiers Of The Wasteland tab

Intro                                                     <> pinch harmonic
e|-------------------R-|-------------------------------|
B|-----7----(7)--------|-----7-------------------------|          ()pinch harmonic
G|--7-9-9-7-9-9-7------|--7-9-9-7-9-9-11-9-------------|            repeats only
D|-9-------------9-7---|-9-----------------------------|
A|---------------------|-------------------------------|
E|---------------------|-------------------------------|

e|--------------------|
B|-----7--------------|                          R = repeat before scale
G|--7-9-9-7-9-11-9-4-6|                              below and scale
D|-9------------------|                              in box
A|--------------------|
E|--------------------|

e|--------7------<7>------|-------<7>----------------|
B|-7--7-10-10-7-10-10-7---|-7--7-10-9-7-<7/11\7\5----|7>
G|---------------------9-7|--------------------------|
D|------------------------|--------------------------|
A|------------------------|--------------------------|
E|------------------------|--------------------------|

---------------------------|
e|--------------------| ---|
B|-----7--------------| ---|
G|--7-9-9-7-9-11-9-3-5| ---|
D|-9------------------| ---|
A|--------------------| ---|
E|--------------------| ---|
---------------------------|

e|------------|------------2X|------------|3X
B|------------|--------------|------------|     x=mute
G|------------|--------------|------------|
D|-7/9--9-x-9-|-12\9--9-x-9--|-12-11-12-14|
A|-7/9--9-x-9-|-12\9--9-x-9--|-12-11-12-14|
E|-5/7--7-x-7-|-10\7--7-x-7--|-10-9--10-12|

e|--------------|------------2X|---|
B|--------------|--------------|---|
G|--------------|--------------|---|
D|-7/9--9-x9x-9-|-12\9--9-7-9--|-6~|
A|-7/9--9-x9x-9-|-12\9--9-7-9--|-6~|
E|-5/7--7-x7x-7-|-10\7--7-7-7--|-4~|

e|------------------3X|----------------------|2-|X |repeat after second  scale
B|--------------------|-------------------------|
G|--------------------|-------------------------|
D|-7-7-7-7-9-7-7-9----|-9-9-7-9-7-7-7-5-7-5-----|
A|--------------------|-------------------------|
E|--------------------|-------------------------|

e|----------------------------2X|---------------------------2X| repeat after
B|------------------------------|-----------------------------|  first scale
G|------------------------------|-----------------------------|    twice
D|-12-12-12-12-12-12-14-12-12-14|10-10-10-10-10-10-12-10-10-12|
A|------------------------------|-----------------------------|
E|------------------------------|-----------------------------|

e|---------------------------------------------------|
B|---------------------------------------------------|
G|---------------------------------------------------|
D|-12--10--14--12--15--13-16-15-14-17-16-15-15-17/19-|
A|---------------------------------------------------|
E|---------------------------------------------------|
Verse

e|--|-------10X|----------|---|--------5X|--|--------5X|---------------------|
B|--|----------|----------|---|----------|--|----------|---------------------|
G|--|----------|----------|---|----------|--|----------|---------------------|
D|-9|-9-9-9-9-9|-9------12|-9-|-9-9-9-9-9|-7|-7-7-7-7-7|-7-------------------|
A|-9|-9-9-9-9-9|-9------12|-9-|-9-9-9-9-9|-7|-7-7-7-7-7|-5555555555555555555-|
E|-7|-7-7-7-7-7|-7------10|-7-|-7-7-7-7-7|-5|-5-5-5-5-5|---------------------|

e|--------------------------|----------------------------------------------|
B|--------------------------|----------------------------------------------|
G|--------------------------|----------------------------------------------|
D|--------------------------|-3--------------------------------------------|
A|-5555555555555555555555555|-1111111111111111111111111111111111111111111
E|--------------------------|----------------------------------------------

e|--------------------------------------------------------------------|
B|--------------------------------------------------------------------|
G|--------------------------------------------------------------------|
D|-7-----------------------5------------------------3---------------5-|
A|-5-----------------------3------------------------1---------------3-|
E|--------------------------------------------------------------------|

e|---------------------------------------------------|-----------------------|
B|---------------------------------------------------|-----------------------|
G|---------------------------------------------------|-----------------------|
D|-7--------------------1----------------------7-----|-7---------------------|
A|-5--------------------3----------------------5-----|-555555555555555555555-|
E|---------------------------------------------------|-----------------------|

e|-----------------------------------------------------------------------2X|
B|-------------------------------------------------------------------------|
G|-------------------------------------------------------------------------|
D|-------------------------------5-----------------------------------------|
A|5555555555555555555555555555555333333333333333333333333333333333333333333|
E|-------------------------------------------------------------------------|
 Chorus
e|-------------------------------2X-|
B|----------------------------------|
G|----------------------------------|
D|-9-------12------7-------9--------|
A|-7-------10------5-------7--------|
E|----------------------------------|

e|--------------------------------R|-----------|            R=repeat before
B|---------------------------------|-----------|              scale below
G|-121212-14-15-14-12-10-14-12-11-9|-8-11-12-14|
D|---------------------------------|-----------|
A|---------------------------------|-----------|
E|---------------------------------|-----------|

e|---------|
B|-13-15-12|
G|---------|
D|---------|
A|---------|
E|---------|


e|--------------------------------R|-----------|            R=repeat before
B|---------------------------------|-----------|              scale below
G|-121212-14-15-14-12-10-14-12-11-9|-8-11-12-14|
D|---------------------------------|-----------|
A|---------------------------------|-----------|
E|---------------------------------|-----------|

e|------------|
B|-12-15-14-10|
G|------------|
D|------------|
A|------------|
E|------------|

e|\12\-----\9\---\7\--\5\---|-<4>--<7>---------------------|
B|--\10\----\7\---\5\--\3\--|----------12-12121212-12121212|
G|----\13p11-\10p8-\8p6-\6p4|------------------------------|
D|--------------------------|------------------------------|
A|--------------------------|------------------------------|
E|--------------------------|------------------------------|

repeat first verse and chorus in order but instead of the second scale above do this
Bridge
e|----12-12/0|---------------------------------------------|
B|-----------|---------------------------------------------|
G|-x12-------|---------------------------------------------|       x=mute
D|-----------|---------------------------------------------|
A|-----------|-9-7-9-10-13---------------------------------|
E|-----------|-7-5-7-8--11---------------------------------|

e|--------------------------------------------------------------------------|
B|--------------------------------------------------------------------------|
G|--------------------------------------------------------------------------|
D|-9-7-9-x-x-x-9-9-7-9-x-x-x-x-9-7-9-x-x-x-9-9-7-9--------------------------|
A|-9-7-9-x-x-x-9-9-7-9-x-x-x-x-9-7-9-x-x-x-9-9-7-9--------------------------|
E|-7-7-7-x-x-x-7-7-7-7-x-x-x-x-7-7-7-x-x-x-7-7-7-7--------------------------|

e|--------------------------------------2X|
B|----------------------------------------|
G|----------------------------------------|
D|-5-3-5-x-x-x-5-5-3-5-x-x-x-x-5-3-5-x-x-x|
A|-5-3-5-x-x-x-5-5-3-5-x-x-x-x-5-3-5-x-x-x|
E|-3-3-3-x-x-x-3-3-3-3-x-x-x-x-3-3-3-x-x-x|

e|------3------8x|
B|-24444-4444----|
G|---------------|
D|---------------|
A|---------------|
E|---------------|

e|-----------4X|
B|-------------|
G|-------------|
D|-0222242222--|
A|-------------|
E|-------------|

e|-0000500007-4x|
B|--------------|
G|--------------|
D|--------------|
A|--------------|
E|--------------|
__________________________
e|-----------8X|         |
B|------8------|         |  when repaeting do first scale 4x
G|-67777-7777--|         |
D|-------------|         |
A|-------------|         |
E|-------------|         |
                         ^
e|---------4x|           |
B|------6----|           |
G|-57777-7777|           |
D|-----------|           |
A|-----------|           |
E|-----------|           |
                         ^
e|-97777107777--4x|     ---|
B|----------------|     ---|
G|----------------|     ---|
D|----------------|     ---|
A|----------------|     ---|
E|----------------|     ---|
repeat---------------------|

e|-------------------------------2X-|
B|----------------------------------|
G|----------------------------------|
D|-9-------12------7-------9--------|
A|-7-------10------5-------7--------|
E|----------------------------------|
Solo
e|-9-121110-121110-131211-131211-121110-121110-1097-1097--12x-|
B|------------------------------------------------------------|
G|------------------------------------------------------------|
D|------------------------------------------------------------|
A|------------------------------------------------------------|
E|------------------------------------------------------------|

e|-----------------------------------|
B|-----------------------------------|
G|------------------------15-14p13h14|
D|121212141414151515141414-----------|
A|-----------------------------------|
E|-----------------------------------|

e|------------------------------------------------|
B|------------------------171615191817171615191817|
G|171615191817171615191817------------------------|
D|------------------------------------------------|
A|------------------------------------------------|
E|------------------------------------------------|

e|-------------------------|---------------------|---------789-<9>-11-9-7|
B|-15------15------15----15|151517171818-20-18-17|------789--------------|
G|-151515151515151515151515|---------------------|---789-----------------|
D|-------------------------|---------------------|789--------------------|
A|-------------------------|---------------------|-----------------------|
E|-------------------------|---------------------|-----------------------|

e|-<15-13>-12-9|-12-10-8-5-5-7-8-9-10-15-13-10|------------------------------|
B|-------------|------------------------------|14-12-12-12-14-15-14-12-14-12-|
G|-------------|------------------------------|------------------------------|
D|-------------|------------------------------|------------------------------|
A|-------------|------------------------------|------------------------------|
E|-------------|------------------------------|------------------------------|


e|tap15p12p10h17p12p10h19p12p10h17p12p10h21p12p10h19p12p10h17p12p10h19p12p10
B|--------------------------------------------------------------------------|
G|--------------------------------------------------------------------------|
D|--------------------------------------------------------------------------|
A|--------------------------------------------------------------------------|
E|--------------------------------------------------------------------------|

e|tap15p14p12h17p14p12h19p14p12h17p14p12h21p14p12h19p14p12h17p14p12h19p14p12
B|--------------------------------------------------------------------------|
G|--------------------------------------------------------------------------|
D|--------------------------------------------------------------------------|
A|--------------------------------------------------------------------------|
E|--------------------------------------------------------------------------|

e|-----------------------------------------------------------------------|
B|11-12-13-12-13-14-13-14-15-14-15-16-14-13-12-13-12-11-12-11-10-11-10-9-|
G|-----------------------------------------------------------------------|
D|-----------------------------------------------------------------------|
A|-----------------------------------------------------------------------|
E|-----------------------------------------------------------------------|
fast picking above
e|---------------------------|-14p12h14--------12h10p12--------12/19|
B|141312-12-14-141312-15-17^-|---------14h12p14--------12p10h12-----| tap
G|---------------------------|--------------------------------------|
D|---------------------------|--------------------------------------|
A|---------------------------|--------------------------------------|
E|---------------------------|--------------------------------------|

e|19-19-19-15-17-17-13-15-15-11-13-13--|------------------------------------|
B|-----------------------------------12|/17-17-17-17-17-15-13--15-/17-17-17-|
G|-------------------------------------|------------------------------------|
D|-------------------------------------|------------------------------------|
A|-------------------------------------|------------------------------------|
E|-------------------------------------|------------------------------------|

e|------------19^|14p12h14p12h14p12h14p12h14p12/14\12/18|tap
B|-17-15-19-17---|--------------------------------------|
G|---------------|--------------------------------------|
D|---------------|--------------------------------------|
A|---------------|--------------------------------------|
E|---------------|--------------------------------------|

e|\9\--9p7h9\8\-8p6h8\7\-7p5h7-77588699710|
B|-\7\-------\6\------\5\-----------------|
G|--\8\-------\7\------\6\----------------|
D|---\9\-------\8\------\7\---------------|
A|----------------------------------------|
E|----------------------------------------|

e|\9\--9p7h9\8\-8p6h8\7\-7p5h7-775886997--|
B|-\7\-------\6\------\5\---------------7-|
G|--\8\-------\7\------\6\----------------|
D|---\9\-------\8\------\7\---------------|
A|----------------------------------------|
E|----------------------------------------|

e|-17-17-17-17-15-13-15-12-1716151615141131415141312111213--|
B|--------------------------------------------------------12|
G|----------------------------------------------------------|
D|----------------------------------------------------------|
A|----------------------------------------------------------|
E|----------------------------------------------------------|

E|----------------------------------------------------------|
B|-14-12-10-12-10-12-9-12-10-12-8-11-13-12-10-8-10-13-12-11-|
G|----------------------------------------------------------|
D|----------------------------------------------------------|
A|----------------------------------------------------------|
E|----------------------------------------------------------|

e|----------------|
B|9-11121211910/12|
G|----------------|
D|----------------|
A|----------------|
E|----------------|

e|----------------------------------------------------|
B|16151415141314131215141314131213121112111010111214--|
G|--------------------------------------------------12|
D|----------------------------------------------------|
A|----------------------------------------------------|
E|----------------------------------------------------|

e|------------------------------------------------------------------|
B|9-1011101112111213101112111213121314141312121314151617161514131415|
G|------------------------------------------------------------------|
D|------------------------------------------------------------------|
A|------------------------------------------------------------------|
E|------------------------------------------------------------------|

e|--------------|12-10-12----12-10-12----8-10-8789978-10-87h8h9p8h9-|
B|12131413141511|10-10-10xxxx10-10-10xxxx8-8--8-----8-8--8----------|
G|--------------|---------------------------------------------------|
D|--------------|---------------------------------------------------|
A|--------------|---------------------------------------------------|
E|--------------|---------------------------------------------------|

e|8891091011101112910111011129101110111217p15h17p15h17h16p14h16p14h16-
B|8-------------------------------------------------------------------|
G|--------------------------------------------------------------------|
D|--------------------------------------------------------------------|
A|--------------------------------------------------------------------|
E|--------------------------------------------------------------------|

e|h15p13h15p13h15-13-15-13-15-17-15-17/21^|-------------------------<9>|
B|----------------------------------------|1312111211101110991011109---|
G|----------------------------------------|----------------------------|
D|----------------------------------------|----------------------------|
A|----------------------------------------|----------------------------|
E|----------------------------------------|----------------------------|

e|--12-12--10--10---------------------------------------------------------|
B|12-12--10--10--10-12-14-17----------------------------------------------|
G|--------------------------11109-121110-131211-141312-131211-121110-11109|
D|------------------------------------------------------------------------|
A|------------------------------------------------------------------------|
E|------------------------------------------------------------------------|

e|--------------------------------------------------------------------|
B|-10-12-11-13-15-12-13-15/19-17-14-16p14h16p14h16-11-12-11-12--11-14-|
G|--------------------------------------------------------------------|
D|--------------------------------------------------------------------|
A|--------------------------------------------------------------------|
E|--------------------------------------------------------------------|

e|1413121312111211109--141312141312151412|----------101112-101112------------|
B|-------------------14------------------|1011210112-------------12-10101010-|
G|---------------------------------------|-----------------------------------|
D|---------------------------------------|-----------------------------------|
A|---------------------------------------|-----------------------------------|
E|---------------------------------------|-----------------------------------|

e|------------10121110------------------19-----------------------------------|
B|101112111213--------171615171615171615---101112-14131213121112111056765/12-|
G|---------------------------------------------------------------------------|
D|---------------------------------------------------------------------------|
A|---------------------------------------------------------------------------|
E|---------------------------------------------------------------------------|

e|9111211101112111314131213141315161514151615171817161718|
B|-------------------------------------------------------|
G|-------------------------------------------------------|
D|-------------------------------------------------------|
A|-------------------------------------------------------|
E|-------------------------------------------------------|
verse
e|----------------------|
B|----------------------|
G|----------------------|
D|-9----------12--------|
A|-7----------10--------|
E|----------------------|
do first scale of chorus before scale on bottom
e|----------------------|
B|----------------------|
G|----------------------|
D|-7--------------------|
A|-555555555555555555555
E|----------------------

e|-----------------------------------------------------------------------2X|
B|-------------------------------------------------------------------------|
G|-------------------------------------------------------------------------|
D|-------------------------------5-----------------------------------------|
A|5555555555555555555555555555555333333333333333333333333333333333333333333|
E|-------------------------------------------------------------------------|
 Chorus
e|-----------------------------------|
B|-----------------------------------|
G|-----------------------------------|
D|-9-------12----------7------------9|
A|-7-------10----------5------------7|
E|-----------------------------------|

e|--------------------------------R|-----------|            R=repeat before
B|---------------------------------|-----------|              scale below
G|-121212-14-15-14-12-10-14-12-11-9|-8-11-12-14|
D|---------------------------------|-----------|
A|---------------------------------|-----------|
E|---------------------------------|-----------|

e|---------|
B|-13-15-12|
G|---------|
D|---------|
A|---------|
E|---------|


e|--------------------------------R|-----------|            R=repeat before
B|---------------------------------|-----------|              scale below
G|-121212-14-15-14-12-10-14-12-11-9|-8-11-12-14|
D|---------------------------------|-----------|
A|---------------------------------|-----------|
E|---------------------------------|-----------|

e|------------|
B|-12-15-14-10|
G|------------|
D|------------|
A|------------|
E|------------|
outro
e|16141414141513131313141212121211-------12-15-17-17-15-17-|
B|---------------------------------------------------------|
G|---------------------------------------------------------|
D|---------------------------------------------------------|
A|---------------------------------------------------------|
E|---------------------------------------------------------|
Tap to rate this tab
# A B C D E F G H I J K L M N O P Q R S T U V W X Y Z