Song name
# A B C D E F G H I J K L M N O P Q R S T U V W X Y Z

Dragonforce - Disciples Of Babylon tab

Disciples of Babylon
by Dragonforce
from Valley of the Damned
tabbed by Angel Fires



Repeat this several times for the intro:
e------------------------------|---------------------------------|
B------------------------------|---------------------------------|
G-2----------------------------|---------------------------------|
D-2----------------------------|-3------3------X-5------5------X-|
A-0--0-0-0-0-0-0-0-3-3-2-2-0-0-|-3------3------X-5------5------X-|
E------------------------------|-1--1-1-1--1-1-X-3--3-3-3--3-3-X-|


Close to the end of the intro (before the verse) he plays this a couple times
e----------------------------------|
B----------------------------------|
G----------------------------------|
D--3------3------X-5------5------X-|
A--3------3------X-5------5------X-|
E--1--1-1-1--1-1-X-3--3-3-3--3-3-X-|

After that a couple times end on this:
e----------------------------------|
B----------------------------------|
G----------------------------------|
D-5--------------------------------|
A-5--------------------------------|
E-3--------------------------------|

The song also ends on that chord, more of it to come :)
Tap to rate this tab
# A B C D E F G H I J K L M N O P Q R S T U V W X Y Z