Song name
# A B C D E F G H I J K L M N O P Q R S T U V W X Y Z

Dragonheart - And The Dark Valley Burns tab

the crowed of people start yellen like a battle 
then drums come in 

battle a distent battle bleeding the steal 

|----------------------------------------|
|----------------------------------------|
|--9--7----------------------------------|
|--9--7---9----7-9/12-11-11/12/11-7-9~---|
|--7--5---7----5-7/10-9--9/10/9---5-7~---|
|-----------00---------------------------|

LEAD part
|--------------------------------54---4--|
|--------8--------------------8-----7----|
|-5-55-7---77-5-8-7-5--5-55-7------------|
|----------------------------------------|
|----------------------------------------|
|----------------------------------------|

|-------------------------------------------------|
|---------8---------------------8-----------------|
|--5-55-7---77-5-8-7-5---5-55-7---7--3h5-5-3-22-3-|
|-------------------------------------------------|
|-------------------------------------------------|
|-------------------------------------------------|

verse 1
|-------------------------------------|
|-------------------------------------|
|-------------------------------------|
|--2------2------2------2-------------|
|--2------2------2------2------9-8-7--|
|--0-0000-0-0000-0-0000-0-0000-7-6-5--|
cont.....
|-------------------------------------|
|-------------------------------------|
|-------------------------------------|
|--2------2------2------2-------------|
|--2------2------2------2------7--4---|
|--0-0000-0-0000-0-0000-0-0000-5--2---|
cont......
|-------------------------------------|
|-------------------------------------|
|-------------------------------------|
|--2------2------2------2-------------|
|--2------2------2------2------9-8-7--|
|--0-0000-0-0000-0-0000-0-0000-7-6-5--|
cont.......
|-------------------------------------|
|-------------------------------------|
|-------------------------------------|
|--2------2------2------2-------5-7---|
|--2------2------2------2-------3-5---|
|--0-0000-0-0000-0-0000-0-0000--------|

chours
... And the dark valley burns 
|--------------------------------------------|
|--------------------------------------------|
|--------------------------------------------|
|--------------------------------------------|
|--------------------------------------------|
|-555555555555--22222222222--3333333333333---|

repeat intro 


THEN PLAY THIS PART AFTER YOU REPEATED THE INTRO
whoooooooo oohh whoooooo
verse 2
|--------------------------------------|
|--------------------------------------|
|--------------------------------------|
|-9---12---7---------7-----7-----7-----|
|-7---10---5--5------5-----5-----5-----|
|-------------0--000-0-000-0-000-0-----|

this part is the part after the chords at the end of that last verse

|----------------------------------|
|----------------------------------|
|----------------------------------|
|----------------------------------|
|----------------------------------|
|--777777777-555555555-888888888---|

reapeat verse 1 
the chours
then that other verse  

solo this is not right i bet ahahah

|-12-12-13-14-13--8-8-10-12--12-12-13-14-13--|
|--------------------------------------------|
|--------------------------------------------|
|--------------------------------------------|
|--------------------------------------------|
|--------------------------------------------|

|--17-19-15-17-14-15-12--|
|------------------------|
|------------------------|
|------------------------|
|------------------------|
|------------------------|

|-12-12-13-14-13--8-8-10-12--12-12-13-14-13-----|
|-----------------------------------------------|
|-------------------------------------------12b-|
|-----------------------------------------------|
|-----------------------------------------------|
|-----------------------------------------------|


i have no idea wat this next part is eather crazy taping or sweeping or both
it has wha in it and repeat as many times as needed
then                          reapet the pull ofs 4xs
|--t----------------------|--12p10p8----------------------------|
|--18-12p10p8-t-----------|----------12p10p8---7---5------------|
|-------------17-12p10p8--|-------------------------------------|
|-------------------------|-------------------------------------|
|-------------------------|-------------------------------------|
|-------------------------|-------------------------------------|

play that 1st box part then play thes as the 2ed ending

|--12p10p8---------------------|
|----------10p8p6--------------|
|-------------------8p6p5------|
|--------------------------4---|
|------------------------------|
|------------------------------|

|--1717-1919-1515-1717-1414-1515-1212-|
|-------------------------------------|
|-------------------------------------|
|-------------------------------------|
|-------------------------------------|
|-------------------------------------|

|----15p19--------15p19-----------15p19-|
|---------17---17-------17----17--------|
|-----------16-------------16-----------|
|---------------------------------------|
|---------------------------------------|
|---------------------------------------|

|--12p17-----------12p17-----------12p17--|
|--------15----15--------15----15---------|
|-----------14--------------14------------|
|-----------------------------------------|
|-----------------------------------------|
|-----------------------------------------|

|--10p9p8p7-------------------------------------------|
|-----------10p9p8p7----------------------------------|
|---------------------10p9p8p7------------------------|
|-------------------------------10p9p8p7--------------|
|-------------------------------------------9-7-55-7--|
|-----------------------------------------------------|

if there r any problems with the tab then message me at 
www.myspace.com/chickensrule100

i dont check my email but its at 
metalmadness1962@yahoo.com
Tap to rate this tab
 
# A B C D E F G H I J K L M N O P Q R S T U V W X Y Z