Song name
# A B C D E F G H I J K L M N O P Q R S T U V W X Y Z

Dragonland - Through Elven Woods And Dwarven Mines tab

           Through Elven Woods and Dwarven Mines
                        Dragonland

Guitar tuned a whole step down 

 p = pull off

|---------------------------------------------|
|---------------------------------------------|
|---------------------------------------------|
|---------------------------------------------|
|---------------3-5-3-1-3-5--5-6-5-3--3p1-5-0-|
|-3-2-3-5-6-5-6-------------------------------|

|---------------------------------------------|
|---------------------------------------------|
|---------------------------------------------|
|-------------------------------------3-5-7---|
|---------------3-5-3-1-3-5--6-8-6-5--1-3-5---|
|-3-2-3-5-6-5-6-------------------------------|

|---------------------------------------------|
|---------------------------------------------|
|---------------------------------------------|
|---------------------------------------------|
|---------------3-5-3-1-3-5--5-6-5-3--3-5-0---|
|-3-2-3-5-6-5-6-------------------------------|

|---------------------------------------------|
|---------------------------------------------|
|---------------------------------------------|
|-------------------------------------3-5-7---|
|---------------3-5-3-1-3-5--6-8-6-5--1-3-5---|
|-3-2-3-5-6-5-6-------------------------------|
Tap to rate this tab
# A B C D E F G H I J K L M N O P Q R S T U V W X Y Z