Guitaretab - guitar tabs
Song name
# A B C D E F G H I J K L M N O P Q R S T U V W X Y Z

Dragpipe - Simple Minded tab

Song:simple minded
artist:dragpipe
tabbed by teel
drop b tuning

im doing this tab just by memory
at school so i know ill put a wrong
fret number or leave out a part
but those of you who know the song
can easily figure it out by looking at this

opening

--13-13--13-13--13-13--13-13--13-13--13-13------------|
------------------------------------------------------|
------------------------------------------------------|
------------------------------------------------------|
--------------------------------------------0-3-5-6-5-|
--------------------------------------------0-3-5-6-5-|
main riff
[ Tab from: http://www.guitaretab.com/d/dragpipe/38316.html ]
---------------------------------------------------------------|
---------------------------------------------------------------|
---------------------------------------------------------------|
---------------------------------------------------------------|
---2-2--2-2--2-2--2-3-5-6-5---2-2--2-2--2-2--2-3-5-6-5---------|
---2-2--2-2--2-2--2-3-5-6-5---2-2--2-2--2-2--2-3-5-6-5---------|

chours "im so, your so, simple minded"

----------------------------------------------------------|
----------------------------------------------------------|
----------------------------------------------------------|
----------------------------------------------------------|
--5-2--5-2--7-7-8-8---5-2-5-2--7-7-8-8--------------------|
--5-2--5-2--7-7-8-8---5-2-5-2--7-7-8-8--------------------|

its not the hole song, and i made this
while listening to it on uranium, so its wrong, but sounds
like it so others can monkey around with this, and find
the correct way....teel
Simple Minded chords by Dragpipe