Song name
# A B C D E F G H I J K L M N O P Q R S T U V W X Y Z

Drake Bell - Wrong Side Of The Sun tab

e|-7-7-8-8-5-5-7-7-3-3-1-0---------------------------------------------------|
B|-------------------------2-3-2-3-2-3-2-3-2---------------------------------|
G|------------------------------2---2---2---2--------------------------------|
D|---------------------------------------------------------------------------|
A|---------------------------------------------------------------------------|
E|---------------------------------------------------------------------------|


e|----------------10-10-12-12-10-10-10-9--10-9--10-9--10-9-------------------|
B|-7-7-8-10-12-12-----------------------10----10----10----10-----------------|
G|---------------------------------------------------------------------------|
D|---------------------------------------------------------------------------|
A|---------------------------------------------------------------------------|
E|---------------------------------------------------------------------------|

Tap to rate this tab
 
# A B C D E F G H I J K L M N O P Q R S T U V W X Y Z