Song name
# A B C D E F G H I J K L M N O P Q R S T U V W X Y Z

Drake Bell - Lonely chords

Highlighted       Show chord diagrams
Lonely by Drake Bell
Album: Nashville Sessions

Tabbed by alex_72886


Notes: Gm/A# can be replaced with just A#, i just
liked the Gm/A# 'cause it sounds better



CHORDS USED:

    Am    D7    F    Am/G   C    G/B  Gm/A#   A7    Dm  Dm/C
e/--0-----2-----1-----0-----0-----3-----3-----0-----1-----1----|
B/--1-----1-----1-----1-----1-----3-----3-----2-----3-----3----|
G/--2-----2-----2-----2-----0-----0-----3-----0-----2-----2----|
D/--2-----0-----3-----2-----2-----0-----x-----2-----0-----x----|
A/--0-----x-----3-----x-----3-----2-----1-----0-----x-----3----|
E/--x-----x-----1-----3-----x-----x-----x-----x-----x-----x----|

    Fm    G   Am/F#  Fm/G#  A#
e/--1-----3-----0-----4-----x-----|
B/--1-----3-----1-----6-----3-----|
G/--1-----0-----2-----5-----3-----|
D/--2-----0-----2-----x-----3-----|
A/--2-----2-----x-----x-----1-----|
E/--1-----3-----2-----4-----x-----|



Intro: Am D7


Verse I:


Am                             D7
Didn't know what this feelin' was
Am                      D7
Til it stopped right behind me
Am                      D7
Don't know if I call it love
Am                     D7  
But I'm not takin' it lightly



Bridge: 
            F       
'Cause I'm livin' in my own world
No one cares if I stay or go
Am   Am/G
Away from
F                   
Here in my own world
I don't have much to show
Am      Am/G     D7
But one thing I know



Chorus:
     
C   G/B  
Lonely
    Gm/A#                A7
Has always been friends with me
   Dm        Dm/C   G/B               Fm       G
And I don't know if I could give you what you need and
C   G/B
Lonely
    Gm/A#      A7
Has always had time for me
    Dm  Dm/C    G
But maybe your love
    Fm         Am   D7  Am D7
Is just what I need



Verse II:

Am             D7
Take away this pain
Am             D7
That I have created
Am                   D7
'Cause you helped me change
Am                     D7
'Cause I'm broken and faded



Bridge: 
            F       
'Cause I'm livin' in my own world
No one cares if I stay or go
Am   Am/G
Away from
F                   
Here in my own world
I don't have much to show
Am      Am/G     D7
But one thing I know



Chorus:
     
C   G/B  
Lonely
    Gm/A#                A7
Has always been friends with me
   Dm        Dm/C   G/B               Fm       G
And I don't know if I could give you what you need and
C   G/B
Lonely
    Gm/A#      A7
Has always had time for me
    Dm  Dm/C    G
But maybe your love



Bridge:

Am
Try to fight try to stop try to hold back
Am/G
Try to stay all alone 'cause I know that
Am/F#
Lovin' me
     F      Fm/G#
Ends tragically



Instrumental:
C  G/B  Gm/A#  Dm  F G


b = bend
/ = slide up
\ = slide down



   C               G/B         
e/--12-13-13b15b13------------------------|
B/-----------------13--12-13-13b15b15-----|
G/------------------------------------12--|
D/----------------------------------------|
A/----------------------------------------|
E/----------------------------------------|


    Gm/A#                                    Dm
e/---------------------17-15b17------------------|
B/--------13-15--15b17----------15b17b15--13-15--|
G/--12/14----------------------------------------|
D/-----------------------------------------------|
A/-----------------------------------------------|
E/-----------------------------------------------|


        F          G
e/-------------------------15--|
B/--17-17b18b17--16\15-13------|
G/-----------------------------|
D/-----------------------------|
A/-----------------------------|
E/-----------------------------|



Chorus:
     
C   G/B  
Lonely
    Gm/A#                A7
Has always been friends with me
   Dm        Dm/C   G/B               Fm       G
And I don't know if I could give you what you need and
C   G/B
Lonely
    Gm/A#      A7
Has always had time for me
    Dm  Dm/C    G
But maybe your love
                C
Is all that I need
   G/B        Gm/A# A7 Dm Dm/C G/B
Is all that I need
   Fm       G      C G/B Gm/A# A7 Dm Dm/C (Fade Out)
Is all that I need
Tap to rate this tab
 
# A B C D E F G H I J K L M N O P Q R S T U V W X Y Z