Song name
# A B C D E F G H I J K L M N O P Q R S T U V W X Y Z

Drake Bell - Telegraph chords

Highlighted       Show chord diagrams
Telegraph by Drake Bell
Album: Telegraph



Tabbed by alex_72886



CHORDS USED:

     F    F/A  A#/D  A#m/C# Fsus  D#6    D     D7   Gm7  A#/C    C7
e/---1-----1-----x-----x-----1-----x-----2-----2-----3-----x-----0-----|
B/---1-----1-----3-----2-----1-----4-----3-----1-----3-----3-----1-----|
G/---2-----2-----3-----3-----3-----5-----2-----2-----3-----3-----3-----|
D/---3-----3-----3-----3-----3-----5-----0-----0-----3-----3-----2-----|
A/---3-----0-----5-----4-----3-----6-----x-----x-----5-----3-----3-----|
E/---1-----x-----x-----x-----1-----x-----x-----x-----3-----x-----x-----|


    C/E    Dm  A#sus2  Fm    A#   C#7    Am
e/---0-----1-----1-----1-----1-----4-----0-----|
B/---1-----3-----1-----1-----3-----6-----1-----|
G/---0-----2-----3-----1-----3-----4-----2-----|
D/---2-----0-----3-----2-----3-----6-----2-----|
A/---3-----x-----1-----2-----1-----4-----0-----|
E/---0-----x-----x-----1-----x-----x-----x-----|



Intro:

C7



Verse I:
 
F       F/A A#/D       A#m/C#             F      Fsus
Telegraph,  telephone, tell a friend I'm leaving
F              F/A A#/D      A#m/C#             F
I heard you left,  me alone, but I'm here still breathing,
       D#6      D  D7
'Cause she's in me
Gm7                                A#/C           C7
Tell me where you've gone, could I meet you later on
       F  D#6     A#/D A#m/C#
Should I, let you be



Chorus:

F            C/E         Dm
 I guess I'm letting you go
     C/E                         F
It's hard but its just like they say
    C/E       Dm
You had to be so
C/E                     F
Hard on my heart and my head
       Dm      Am    A#sus2   F     F/A
But I left our past, on a telegraph



Verse II:
 
A#/D    A#m/C#               F        Fsus
Telephone, tell a friend I'm grieving
F       F/A    A#/D          A#m/C#          F
Lift it up and tear it down, see what you believe in
       D#6      D  D7
'Cause she's in me
Gm7                                A#/C           C7
Tell me where you've gone, could I meet you later on
       F  D#6     A#/D A#m/C#
Should I, let you be   (I'm gonna let you go)



Chorus:

F            C/E         Dm
 I guess I'm letting you go
     C/E                         F
It's hard but its just like they say
    C/E       Dm
You had to be so
C/E                     F
Hard on my heart and my head
       Dm      Am    A#sus2   F     Fsus
But I left our past, on a telegraph



Bridge:

Fm          A#      Fm             A#        Fm
  Am I just wasting time trying to lose your mind
             C#7         C7  Fsus
How do these things get done
Fm          A#        Fm                 A#     Fm
  So do you think its true when it comes out of you
              C#7   C7
Aren't we the lucky ones



Outro:

F       F/A A#/D       A#m/C#             F      
Telegraph,  telephone, tell a friend I'm leaving
       D#6      D  D7
'Cause she's in me
Gm7                                A#/C           C7
Tell me where you've gone, could I meet you later on
       F  D#6     A#/D A#m/C#    F
Should I, let you be   I'm gonna
Tap to rate this tab
# A B C D E F G H I J K L M N O P Q R S T U V W X Y Z