Song name
# A B C D E F G H I J K L M N O P Q R S T U V W X Y Z

Drake Bell - Shades Of Grey tab

 The solo is meant to be played with a slide on an electric guitar as heard in the original song.

My video tutorial:
http://www.youtube.com/watch?v=557wYIBYQDc


 |                                  PART 1                                   |
 |                                                                           |
e|------------------3-------------------5----------------3---4----0----------|
B|---3/-----5------------3/-----5------------3/-----5------------------------|
G|---------------------------------------------------------------------------|
D|---------------------------------------------------------------------------|
A|---------------------------------------------------------------------------|
E|---------------------------------------------------------------------------|
 |                                   ^                                       |
 |                                Guitar I                                   |
 |                                                                           |
 |                                Guitar II                                  |
 |                                   v                                       |
 |                                                                           |
e|-------------------------------------------------------8---7----11b-10\8---|
B|---------------------------------------------------------------------------|
G|---------------------------------------------------------------------------|
D|---------------------------------------------------------------------------|
A|---------------------------------------------------------------------------|
E|---------------------------------------------------------------------------|

                                    PART 2
                                      V  
 ___________________________________________________________________________

e|------------------3-------------------5----------------3---4---5---7-------|
B|---3/-----5------------3/-----5------------3/-----5------------------------|
G|---------------------------------------------------------------------------|
D|---------------------------------------------------------------------------|
A|---------------------------------------------------------------------------|
E|---------------------------------------------------------------------------|
 |                                   ^                                       |
 |                                Guitar I                                   |
 |                                                                           |
 |                                                                           |
 |                                Guitar II                                  |
 |                                   v                                       |
 |                                                                           |
e|---5/-----8-------8\---5/-----8-------8\---3/-----8----8---7---8---10------|
B|---------------------------------------------------------------------------|
G|---------------------------------------------------------------------------|
D|---------------------------------------------------------------------------|
A|---------------------------------------------------------------------------|
E|---------------------------------------------------------------------------|
  ___________________________________________________________________________

e|-11b-10\8------------------------------------------------------------------|
B|---------------------------------------------------------------------------|
G|---------------------------------------------------------------------------|
D|---------------------------------------------------------------------------|
A|---------------------------------------------------------------------------|
E|---------------------------------------------------------------------------|



************************************

| /   slide up
| \   slide down
| h   hammer-on
| p   pull-off
| ~   vibrato
| +   harmonic
| x   Mute note
| b   Bend
| pb  Pre-bend
| br  Bend release
| pbr Pre-bend release
| brb Bend release bend

************************************
Tap to rate this tab
 
# A B C D E F G H I J K L M N O P Q R S T U V W X Y Z