Song name
# A B C D E F G H I J K L M N O P Q R S T U V W X Y Z

Drake Bell - I Found A Way Electric tab

Drake Bell - I Found A Way Tab.

Notes: Please note that this is an electric guitar version.

x = mute strings.

Verse/Intro
e-----------------------|
b-----------------------|
g--xx9xx9x--------------|
d--xx9xx9x-7xx7x-9999---|
a--xx7xx7x-7xx7x-9999---|  x4
E----------5xx5x-7777---|


chorus
e---------------------------0----------------------|
b---------------------------0----------------------|
g--6-6-666------------------0  Let the 0-0-0-7-7-5-| ring out.
d--6-6-666--4-4-444--7-7-7777----------------------|
a--4-4-444--4-4-444--7-7-7777----------------------|
E-----------2-2-222--5-5-5555----------------------|

e-----------------------------------------|
b-----------------------------------------|
g------------44444444--7777777766666666---|
d--77777777--44444444--7777777777777777---|  x3
a--77777777--22222222--5555555555555555---|
E--55555555-------------------------------|

e---------------------------------------------------------|
b---------------------------------------------------------|
g--4444444444444444-777777777x7x7x7x7---------------------|
d--4444444444444444-777777777x7x7x7x7  Let the last 7-7-5-| ring out.
a--2222222222222222-555555555x5x5x5x5---------------------|
E---------------------------------------------------------|

Thanks for viewing my tab!

Any questions or queries, please send to: pspcrazy1@hotmail.co.uk
Sorry there is no solo.

By Liam M.
Tap to rate this tab
 
# A B C D E F G H I J K L M N O P Q R S T U V W X Y Z