Song name
# A B C D E F G H I J K L M N O P Q R S T U V W X Y Z

Drake Bell - Golden Days tab

-------------------------------------------------------------------------------
			     Golden Days - The Damnwells
-------------------------------------------------------------------------------
Tabbed by: Brad Bolman
Email: bbolman@gmail.com

Tuning: standard

There’s a synth/guitar part that starts at the beginning, just one long held-out note. A 
of this song is the baseline.

Intro:
e|--3/4-4\3-----------9-8-3---4-3--------------------------------------------|
B|----------4---------------4-----4------------------------------------------|
G|---------------------------------------------------------------------------|
D|---------------------------------------------------------------------------|
A|---------------------------------------------------------------------------|
E|---------------------------------------------------------------------------|

Verse:
Throw the little slides into different parts of the verse.
e|--3/4----------3/4--3\4----------------------------------------------------|
B|------------------------4--------------------------------------------------|
G|---------------------------------------------------------------------------|
D|---------------------------------------------------------------------------|
A|---------------------------------------------------------------------------|
E|---------------------------------------------------------------------------|

Chorus:
(Repeats a few times, various little changes in the riff)
e|-------------------------------4--4-3---3h4-----------------------------------|
B|--------------------------------------4---------------------------------------|
G|------------6p5---3p1---------------------------------------------------------|
D|------------------------------------------------------------------------------|
A|------------------------------------------------------------------------------|
E|------------------------------------------------------------------------------|
  … Am I into           hear much…

e|-------------3-4-3-----9-8-6-3-4--------~11--------------------------------|
B|-----------4---------------------------------------------------------------|
G|---------------------------------------------------------------------------|
D|---------------------------------------------------------------------------|
A|---------------------------------------------------------------------------|
E|---------------------------------------------------------------------------|
  … Let’s go…                      …days…

Verse:
e|---------------------------------------------------------------------------|
B|------------------------4/~6-4----------3/4-4-4\3--------------------------|
G|--------------------------------------------------4------------------------|
D|---------------------------------------------------------------------------|
A|---------------------------------------------------------------------------|
E|---------------------------------------------------------------------------|
  …distance in your eyes…

(for the rest of the verse, mess around with those notes)

Chorus:
(Repeats a few times, various little changes in the riff)
e|-------------------------------4--4-3---3h4-----------------------------------|
B|--------------------------------------4---------------------------------------|
G|------------6p5---3p1---------------------------------------------------------|
D|------------------------------------------------------------------------------|
A|------------------------------------------------------------------------------|
E|------------------------------------------------------------------------------|
  … Am I into           hear much…

e|-------------3-4-3-----9-8-6-3-4--------~11--------------------------------|
B|-----------4---------------------------------------------------------------|
G|---------------------------------------------------------------------------|
D|---------------------------------------------------------------------------|
A|---------------------------------------------------------------------------|
E|---------------------------------------------------------------------------|
  … Let’s go…                      …days…

Bridge:
e|--~2----~4------~2-2/~1-1/~0-----------------------------------------------|
B|---------------------------------------------------------------------------|
G|---------------------------------------------------------------------------|
D|---------------------------------------------------------------------------|
A|---------------------------------------------------------------------------|
E|---------------------------------------------------------------------------|

Chorus:
(Repeats a few times, various little changes in the riff)
e|-------------------------------4--4-3---3h4-----------------------------------|
B|--------------------------------------4---------------------------------------|
G|------------6p5---3p1---------------------------------------------------------|
D|------------------------------------------------------------------------------|
A|------------------------------------------------------------------------------|
E|------------------------------------------------------------------------------|
  … Am I into           hear much…

e|-------------3-4-3-----9-8-6-3-4--------~11--------------------------------|
B|-----------4---------------------------------------------------------------|
G|---------------------------------------------------------------------------|
D|---------------------------------------------------------------------------|
A|---------------------------------------------------------------------------|
E|---------------------------------------------------------------------------|
  … Let’s go…                      …days…

| /  slide up
| \  slide down
| h  hammer-on
| p  pull-off
| ~  vibrato
| +  harmonic
| x  Mute note
===============================================================================
Tap to rate this tab
# A B C D E F G H I J K L M N O P Q R S T U V W X Y Z