Song name
# A B C D E F G H I J K L M N O P Q R S T U V W X Y Z

Drake Bell - Hollywood Girl tab

Highlighted       Show chord diagrams
song: hollywood girl
artist: drake bell
tabber: neil vincent

hey i think this song is about 95% right so just try and correct it if you think its 
but anyway im new at this and its my first tab so go easy!

INTRO

|-------------------------------------------------|
|-------------------------------------------------|
|-------------------------------------------------|
|-----4-4-7-4-4-7-4-7--------------end on 7-------|
|-----5-5-5-5-5-5-5-5-----(x7)------------5.....--|
|-------------------------------------------------|

VERSE 1

D           A
  Hollywood girl
         D
Is lost again
           A                        D
All of her hopes left her stranded
         A
Seasoned dreams
         D        D.....
Are just pretend

She can't stand it

PRE-CHORUS

C#         D                 A
  Why'd it have to happen to me
C#M        D              E
  Why'd it have to hurt so bad

CHORUS

D               A     F#
  Cause in this town
           C#             D     A
Can't find up but I found down
            E
In the city life
D             A      F#
  Can't turn around
           C$            D      A
Can't give up I feel too proud
               E
Under the city lights

VERSE 2

D               A
  She doesn't believe
      D
In believing
              A                D
Miracles have died in her mind
              A
She knows the world
      D
Is deceiving
               D.....
Everything is wastin' her time

PRE-CHORUS

C#         D                 A
  Why'd it have to happen to me
C#         D              E
  Why'd it have to hurt so bad

CHORUS

D               A     F#
  Cause in this town
           C#             D     A
Can't find up but I found down
            E
In the city life
D             A      F#
  Can't turn around
           C$            D      A
Can't give up I feel too proud
               E
Under the city lights

VERSE 3

F#        Bm
  Get in line and hold your head high
F#        Bm
  Pretty face will help you get by
F#       Bm
  Step inside I'll make your tears dry
F#               Bm.....E.....
  So put on your smile........

CHORUS

Ha

D               A     F#
  Cause in this town
           C#             D     A
Can't find up but I found down
            E
In the city life
D             A      F#
  Can't turn around
           C$            D      A
Can't give up I feel too proud
               E
Under the city lights

INTRO

|-------------------------------------------------|
|-------------------------------------------------|
|-------------------------------------------------|
|-----4-4-7-4-4-7-4-7--------------end on 7-------|
|-----5-5-5-5-5-5-5-5-----(x7)------------5.....--|
|-------------------------------------------------|

THANKS HOPE IT HELPS!!!!!!! LET THE LAST NOTE RING AT THE END!!!!!!!!
Tap to rate this tab
# A B C D E F G H I J K L M N O P Q R S T U V W X Y Z